Song name
# A B C D E F G H I J K L M N O P Q R S T U V W X Y Z

Rivulets - The Sunsets Can Be Beautiful Even In Chicago tab

 tune down half step

 main pattern

 sometimes its played like this

E------0-----0--    ------0-----0--    -----0--------|
B---------0-----    ---------0-----    -----------0--|
G--------------- x4 --------------- x4 --------2-----| x4
D---7-----------    ---6-----------    --0-----------|
A---------------    ---------------    --------------|
E---------------    ---------------    --------------|

 and sometimes like this

E------------0--    ------------0--    -----------0--|
B---------0-----    ---------0-----    --------0-----|
G------6-------- x4 ------4-------- x4 -----2--------| x4
D---7-----------    ---6-----------    --0-----------|
A---------------    ---------------    --------------|
E---------------    ---------------    --------------|


E---0-----------------0-----------------0----------0--0----------|
B---0-----------------0-----------------0----------0--2----------|
G---6-----------------4-----------------2----------2--2----------|
D---7-----------------6-----------------0----------0--0----------|
A---0-----------------0-----------------x----------x--x----------|
E---x-----------------x-----------------x----------x--x----------|

      "not if i can       not if i can"


you have lost a part of you that can't
shut in, turn inward, ever escape

not if i can, not if i can

you have given more than your fair share
tainted saint, a virgin once revered (i'm not sure about this line)

not if i can, not if i can
not if i can, not if i can
find it, find it, find it there
Tap to rate this tab
# A B C D E F G H I J K L M N O P Q R S T U V W X Y Z