Song name
# A B C D E F G H I J K L M N O P Q R S T U V W X Y Z

Rivulets - Creased tab

Help us improve GuitareTab! Take a short survey!
tune down one step

song is just

    C    C    F
E---x----x----x------------|
B---x----x----x------------|
G---0----0----0------------|
D---2----0----0------------|
A---3----3----3------------|
E---0----0----1------------|

listen to the song to work out the strumming pattern
and to see when he lets the open strings sound

there is a second part that comes over the top

E---------------------------------------------|
B---------------------------------------------|
G------0-----------0-----0--------0-----------|
D------------5--------3-----3--2-----2--------|
A---3-----3-----3-----------------------------|
E---------------------------------------------|


Why is your face creased with worry?
Why is your face creased with worry?

It's quiet on the harbor
It's quiet on the harbor
No one's coming and no one's going away

You
You
You have found
Have found a place to stay
Related for Creased tab