Guitaretab - guitar tabs
Song name
# A B C D E F G H I J K L M N O P Q R S T U V W X Y Z

Rivulets - Theres Nothing I Can Do tab

tune down half step

the whole song goes around a loose progression
something like this

     D    D    D     D
E----x----x----x-----x-------------------------|
B----x----x----x-----x-------------------------|
G----2----2----2-----0-------------------------|
D----0----0----0-----0-------------------------|
A----2----2----2-----2-------------------------|
E----3----3----3-----3-------------------------|


     D    D    D     D
E----x----x----x-----x-------------------------|
B----x----x----x-----x-------------------------|
G----2----2----2-----0-------------------------|
D----0----0----0-----0-------------------------|
A----2----2----2-----2-------------------------|
E----3----3----3-----3-------------------------|

[ Tab from: http://www.guitaretab.com/r/rivulets/188371.html ]
     D    D    D  U  D
E----x----x----x--x--x-------------------------|
B---(0)--(0)--(0)(0)-0-------------------------|
G----2----2----2--2--4-------------------------|
D----0----0----0--0--0-------------------------|
A----2----2----2--2--2-------------------------|
E----3----3----3--3--3-------------------------|


     D    D    D  U  D    D    D    D
E----x----x----x--x--x----x----x----x----------|
B---(0)--(0)--(0)(0)-0----x----x----x----------|
G----2----2----2--2--4----2----0---(0)---------|
D----0----0----0--0--0----0----0----2----------|
A----2----2----2--2--2----2----2----3----------|
E----3----3----3--3--3----3----3----3----------|


I'm tired of the city
All the street noises
Outside my window float
Thousands of headcases

Though I am sorry
This way just seems easiest
A house in the country
Is just not within my grasp

I miss my mother
I miss my father, too
I miss my grandparents
There is nothing I can do
Related for Theres Nothing I Can Do tab
Advertisement will be closed in 10 seconds