Song name
# A B C D E F G H I J K L M N O P Q R S T U V W X Y Z

Rivulets - Will You Miss Me When I Burn tab

WILL YOU MISS ME WHEN I BURN (BY WILL OLDHAN)

half step down (or full step down, i'm not really sure)


(intro)

----------------------------------------------------------------------------------------|
----------------------------------------------------------------------------------------|
--4-----0-----4-----0-----4------0-----4s5-4-0---2-----0-----2-----0-----2-----0----0h2-|
----5-----5-----5-----5-----5------5---------------3-----3-----3-----3-----3-----3------|   X2
------5-----5-----5-----5-----5------5---------------3-----3-----3-----3-----3-----3----|
----------------------------------------------------------------------------------------|

----------------------------------------------------------------------------------------|
----------------------------------------------------------------------------------------|
-0----0-----0-----0-----4-----5-----4-----0---2-----0-----2-----0-----2-----0-----0h2---|
---5----5-----5-----5-----5-----5-----5---------3-----3-----3-----3-----3-----3---------|   X2
-----5----5-----5-----5-----5-----5-----5---------3-----3-----3-----3-----3-----3-------|
----------------------------------------------------------------------------------------|

and the chords goes like

  G#       F       C
----------------------------|
---3-------2-------1--------|
---4-------0-------0--------|
---5-------3-------2--------|
---5-------3-------3--------|
---x-------x-------0--------|


sometimes ou have to do a hammer and pull off on the 3th string, like this

----------------------------|
--3--3--3--------1--1--1----|
--4--0--4--------2--0--0h2--|
--5--5--5---and--3--3--3----|
--5--5--5--------3--3--3----|
--x--x--x--------x--x--x----|



When you have no one
No one can hurt you
When you have no one
No one can hurt you

In the corners there is light
That is good for you
And behind you, I have warned you
There are awful things

Will you miss me when I burn
And will you eye me with a longing ?
It is longing that I feel
To be missed for, to be real

When you have no one
No one can hurt you
When you have no one
No one can hurt you

(bridge)

Will you miss me when I burn
And will you close the others' eyes ?
It would be such a favor
If you would blind them

There is absence, there is lack
There are wolves here abound
You will miss me when I turn around

When you have no one
No one can hurt you
When you have no one
No one can hurt you

When you have no one
No one can hurt you
When you have no one
No one can hurt you
Tap to rate this tab
# A B C D E F G H I J K L M N O P Q R S T U V W X Y Z