Song name
# A B C D E F G H I J K L M N O P Q R S T U V W X Y Z

Riz Ortolani - Cannibal Holocaust Main Theme tab

================================================================================
                             R I Z   O R T O L A N I

                                       -

                       C A N N I B A L   H O L O C A U S T

                             ( M A I N   T H E M E )
================================================================================


                             CANNIBAL HOLOCAUST OST
                            (c)  Coffin Records 1979
                      http://www.imdb.com/title/tt0078935/


                                 Standard Tuning
                                   E A D G B E

                                  Tempo = 65 BPM
                               Time Signature = 4/4



                          -----------------------------
                                 Transcribed by

                                 PADDY MCMULLAN
                           stinkypoohpants@yahoo.co.uk

                                   Version 1.0
                                31st October 2008
                             -----------------------

                             Tablature Symbols Used:


 ( )       -  Ghost Note/Tied Note/Implied Note
 0 h 2     -  Hammer-on
 2 p 0     -  Pull-off
 (3/5)     -  Legato Slide


                             -----------------------
                                  Chords Used:
                             -----------------------


                  G          C          D          Bm         D7
           E||----3----||----0----||----2----||----2----||----2----||
           B||----0----||----1----||----3----||----3----||----1----||
           G||----0----||----0----||----2----||----4----||----2----||
           D||----0----||----2----||----0----||----4----||----0----||
           A||----2----||----3----||---------||----2----||---------||
           E||----3----||---(3)---||---------||---------||---------||

                  Dsus2      D#         G#         A#         Gm
            ||----0----||---------||---------||---------||---------||
            ||----3----||---(4)---||----4----||----6----||---------||
            ||----2----||----3----||----5----||----7----||----3----||
            ||----0----||----5----||----6----||----8----||----5----||
            ||---------||----6----||----6----||----8----||----5----||
            ||---------||---------||----4----||----6----||----3----||

                             Cadd9       Em        Am/D
                       ||---------||---------||----0----||
                       ||----3----||----0----||----1----||
                       ||----0----||----0----||----2----||
                       ||----2----||----2----||----0----||
                       ||----3----||----2----||---------||
                       ||---------||----0----||---------||



================================================================================
Acoustic Guitar (Double bar lines indicate changes)
================================================================================


* Let notes ring throughout song *


    G                              C            D
||------------------------------|---------------------3p 2--------|
||-----0------------------------|-------1-----------3------3------|
||---------0---------0--------0-|----------0------2----------2----|
||-----------0--------------0---|-----2---------0--------------0--|
||-----------------2---0h 2-----|--3---------3--------------------|
||--3------------3--------------|---------------------------------|


   G                                 C            D
|---------------------------------|---------------------2-------|
|-----0------------0--------0-----|-------1-----------3-----3---|
|---------0-----------------------|----------0------2-----2-----|
|-----------0h 2-0--------0-----0-|-----2---------0-------------|
|--------------------0h 2-----2---|--3---------3----------------|
|--3------------------------------|-----------------------------|


   G                             C            D
|-------------3---------------|---------------------3p 2--------|
|-----0---------------0-------|-------1-----------3------3------|
|---------0---------0----0----|----------0------2----------2----|
|-----------0---0-0--------0--|-----2---------0--------------0--|
|-----------------------------|--3---------3--------------------|
|--3--------------------------|---------------------------------|


   G                             C            D
|-------------3---------------|---------------------2--------|
|-----0-------------0---------|-------1-----------3----3-----|
|---------0------------0------|----------0------2--------2---|
|-----------0----0-------0h 2-|-----2---------0--------------|
|-----------------------------|--3---------3---------------0-|
|--3--------------------------|------------------------------|


    Bm                             C               Dsus2
||--------------2---------------|------------------------0-------|
||-------3-------------3--------|-------1--------1-----3----3----|
||----------4--------4----4-----|--------------0-----2--------2--|
||-----4------4----4--------4---|-----2---0h 2-----0-------------|
||--2-------------------------0-|--3-----------------------------|
||------------------------------|--------------------------------|


   Bm                           Cadd9             D
|--------------2-------------|--------------------------2--------|
|-------3-------------3------|------------3-----------3----3-----|
|----------4--------4--------|----------0----0------2--------2---|
|-----4------4----4-------4--|--------2-----------0--------------|
|--2-------------------------|--3--------------3---------------0-|
|----------------------------|-----------------------------------|


    G                                  C             D
||----------------------------------|----------------------3p 2--------|
||-----0------------0---------------|-------1------------3------3------|
||---------0------------------------|----------0-------2----------2----|
||-----------0----0--------0--------|-----2------0-2-0--------------0--|
||--------------------0h 2-----0h 2-|--3-------------------------------|
||--3----------0h 3----------3------|----------------------------------|


   G                             C            D
|-------------3---------------|---------------------3p 2--------|
|-----0---------------0-------|-------1------------------3------|
|---------0--------------0----|----------0------2----------2----|
|-----------0---0-0--------0--|-----2---------0---0-------------|
|-----------------------------|--3---------3-----------------0--|
|--3----------------3---------|---------------------------------|


    Bm                                 C              Cadd9
||----------------2-----------------|----------------------------------|
||-------3----------------3---------|-------1---------------3----------|
||-----4---4----4-------4----4------|----------0--------------0--------|
||------------4-------4--------4----|-----2------0h 2------------2-----|
||--2---------------2---------(2)p0-|--3--------------3-------------3--|
||----------------------------------|----------------------------------|


   Bm                           D7          D
|---------------2------------|---------2--------3p 2-----------|
|-------3------------3-------|-----1------1----------3------3--|
|----------4------------4----|-------2---------------2-2-2-----|
|-----4------4-----4---------|--0-----------0------------------|
|--2----------------------2--|---------------------------------|
|----------------------------|---------------------------------|


    Em      D  C    D  G       C      D  G
||---------------------3-----|---------------------------------|
||-------0--3--1----3--0-----|--------3--------0---------------|
||-----0----2--0----2--0-----|-----0--2--0-----0--------0------|
||--2-------0--2----0--0--0--|--------0--0---0---0h 2-0--------|
||-------------3-------2-----|--3--------2----------------0h 2-|
||---------------------3-----|-----------3-3-------------------|


   C      Am/D G        C       D
|---------0------------------|--------2---------3p 2-----------|
|---------1----0--------1----|------3----3-----------3------3--|
|-------0-2----0--------0----|----2--------2--2--------2----2--|
|-----2---0----0--0-----2----|--0------------------------0-----|
|--3-----------2--------3----|---------------------------------|
|--------------3-----3--3----|---------------------------------|


    G                              C             D7
||--------------3---------------|-----------------------2------|
||-----0----------------0-------|------1--------------1--------|
||-------0--0-------0---0--0----|-------------0-----2-------2--|
||------------0--------------0--|--------0h 2-2--0-------------|
||------------------------------|--3---------------------------|
||--3-------------3---3---------|------------------------------|


   G                               C            D
|-------------------------------|---------------------2-------|
|-----0-------------------------|-------1-----------3----3----|
|---------0----------------0----|----------0------2--------2--|
|-----------0h 2-0-------0------|-----2---------0-------------|
|-------------------0h 2-----2--|--3---------3----------------|
|--3----------------------------|-----------------------------|

    Bm                             C                          G (Rake chord)
||--------------2---------------|------------------------0------------|
||-----3------------------3-----|-------1--------1-----3--------------|
||----------4--------4----------|--------------0-----2--------------0-|
||------------4-------------0---|-----2---0h 2-----0--------------0---|
||--2-----2--------2---2------2-|--3----------------------------2-----|
||------------------------------|-----------------------------3-------|


   G /----Strum chord--------\     D#
|--3-----3---------3---3-------||--------------------------|
|--0-----0----0----0---0-------||--------------------------|
|-(0)-0--0----0----------------||--------3-----------3-----|
|-(0)-0----0--0----------------||-----5-----5-----5--5--5--|
|-(2)-0h 2-2--2--2---2---2-----||--6-----------6-----------|
|-(3)------3-----3---3---3--3--||--------------------------|


   G#           A#               D#
|-----------------------------|--------------------------|
|-----4------4----------------|--------------------------|
|-------5--------------7------|--3-----3-----3-----3-----|
|---------6----------8-----8--|-----5-----5-----5--5--5--|
|------------------8----------|-----------------------6--|
|--4------------6-------------|--------------------------|


   G#           A#               Gm
|-----------------------------|------------------------------|
|-----4-----------------------|------------------------------|
|-------5--------------7------|-----------3---3---3----3-----|
|---------6----------8-----8--|--------5--5---5-5-5-5--5--5--|
|------------------8----------|-(3/5)--5--5-----5-5-5--5--5--|
|--4---------4--6-------------|-(1/3)--3--------3-3-3-----3--|


   G#           A#               Gm
|-----------------------------|------------------------------|
|-----4------4----------------|------------------------------|
|-------5--------------7------|-----------3---3---3----3-----|
|---------6----------8-----8--|--------5--5---5-5-5-5--5--5--|
|------------------8----------|-(3/5)--5--5-----5-5-5--5--5--|
|--4------------6-------------|-(1/3)--3--------3-3-3-----3--|


   G#           A#      G#       D#
|-----------------------------|--------------------------|
|-----4------4----------------|--------------------------|
|-------5---------------------|--------3-----------3-----|
|---------6----------8-----6--|-----5-----5-----5--5--5--|
|------------------8----------|--6-----------6-----------|
|--4------------6-------4-----|--------------------------|


   G#           A#               D#
|-----------------------------|--------------------------|
|-----4------4----------------|--------------------------|
|-------5--------------7------|--------3-----------3-----|
|---------6----------8-----8--|-----5-----5-----5--5--5--|
|------------------8----------|--6-----------6-----------|
|--4------------6-------------|--------------------------|


   G#           A#               Gm
|-----------------------------|------------------------------|
|-----4------4----------------|------------------------------|
|-------5--------------7------|-----------3---3---3----3-----|
|---------6----------8-----8--|--------5--5---5-5-5-5--5--5--|
|------------------8----------|-(3/5)--5--5-----5-5-5--5--5--|
|--4------------6-------------|-(1/3)--3--------3-3-3-----3--|


   G#           A#               D#
|-----------------------------|--------------------------|
|-----4------4----------------|--------------------------|
|-------5--------------7------|--------3-----------3-----|
|---------6----------8-----8--|-----5-----5-----5--5--5--|
|------------------8----------|--6-----------6-----------|
|--4------------6-------------|--------------------------|


   G#                            D#
|-----------------------------|-------------------||
|-----4------4----------------|--4----------------||
|-------5--------------5------|--3----------------||
|---------6----------6-----6--|--5----------------||
|------------------6----------|--6----------------||
|--4------------4-------------|-------------------||



================================================================================
End
================================================================================
Tap to rate this tab
# A B C D E F G H I J K L M N O P Q R S T U V W X Y Z