Song name
# A B C D E F G H I J K L M N O P Q R S T U V W X Y Z

Riz Ortolani - Cannibal Holocaust Theme tab

                         CANNIBAL HOLOCAUST (MAIN THEME)
                           As recorded by Riz Ortolani
                  (From the 1979 Album CANNIBAL HOLOCAUST OST)

Transcribed by Corey Hunter www.youtube.com/twinofcocteau



 Intro

  G                                    C                 
  Q  Q  +E  E Q    +E  E E E E E E E   Q  E E +E  E Q    E E E S S E E Q
|----------------|-------------------|-----------------|-------3p2---------|
|----0--(0)------|-------------------|------1-(1)------|-----3-----3-------|
|-----------0----|---------0-------0-|------------0----|---2---------2-----|
|-------------0--|-(0)-----------0---|----2------------|-0-------------0---|
|----------------|-------2---0h2-----|-3------------3--|-------------------|
|-3--------------|-----3-------------|-----------------|-------------------|


  G                                  C                 D
  Q  Q  +E  E E E   E E E E E E Q    Q  E E +E  E Q    E E E E +E  E +Q
|-----------------|----------------|-----------------|-------2-(2)--------||
|----0--(0)-------|---0-------0----|------1-(1)------|-----3-------3-(3)--||
|-----------0-----|----------------|------------0----|---2----------------||
|-------------0h2-|-0-------0------|----2------------|-0------------------||
|-----------------|-----0h2-----2--|-3------------3--|--------------------||
|-3---------------|----------------|-----------------|--------------------||


 1st Time

  G                                      C                 D
  Q  Q  +E  E E E   +E  E E E +E  E Q    Q  E E +E  E Q    E E E S S E E Q
|---------------3-|-(3)----------------|-----------------|-------3p2--------|
|----0--(0)-------|---------0-(0)------|------1-(1)------|-----3-----3------|
|-----------0-----|-------0-------0----|------------0----|---2---------2----|
|-------------0---|-----0-----------0--|----2------------|-0-------------0--|
|-----------------|--------------------|-3------------3--|------------------|
|-3---------------|--------------------|-----------------|------------------|


  G                                      C                 D
  Q  Q  +E  E E E   +E  E E E +E  E Q    Q  E E +E  E Q    E E E E +E  E E E
|---------------3-|-(3)----------------|-----------------|-------2-(2)-------|
|----0--(0)-------|---------0-(0)------|------1-(1)------|-----3-------3-----|
|-----------0-----|-------0-------0----|------------0----|---2-----------2---|
|-------------0---|-----0-----------0--|----2------------|-0-----------------|
|-----------------|--------------------|-3------------3--|-----------------0-|
|-3---------------|--------------------|-----------------|-------------------|


  Bm                                       C                Dsus2
  Q  E E +E  E E E   +E  E E E +E  E E E   Q  E E E E E E   E E E E +E  E Q
|----------------2-|-(2)-----------------|----------------|-------0-(0)------|
|------3-(3)-------|---------3-(3)-------|------1-------1-|-----3-------3----|
|------------4-----|-------4-------4-----|------------0---|---2-----------2--|
|----4---------4---|-----4-----------4---|----2---0h2-----|-0----------------|
|-2----------------|-------------------0-|-3--------------|------------------|
|------------------|---------------------|----------------|------------------|


  Bm                                      Cadd9              D
  Q  E E +E  E E E   +E  E E E +Q   E E   E E E E +E  E Q    E E E E +E  E E E
|----------------2-|-(2)----------------|------------------|-------2-(2)-------|
|------3-(3)-------|---------3-(3)------|-------3-(3)------|-----3-------3-----|
|------------4-----|-------4------------|-----0-------0----|---2-----------2---|
|----4---------4---|-----4----------4---|---2--------------|-0-----------------|
|-2----------------|--------------------|-3-------------3--|-------------------|
|------------------|--------------------|------------------|-----------------0-|


 2nd Time

  G                                   C                  D
  Q  Q  +E  E E E   E E E E E E E E   Q  E E +E  E E E   E E E S S E E Q
|-----------------|-----------------|------------------|-------3p2--------|
|----0--(0)-------|---0-------------|------1-(1)-------|-----3-----3------|
|-----------0-----|-----------0-----|------------0-----|---2---------2----|
|-------------0h2-|-0-------0-------|----2---------0h2-|-0-------------0--|
|-----------------|-----0h2-----0h2-|-3----------------|------------------|
|-3---------------|-----------------|------------------|------------------|


  G                                      C                 D
  Q  Q  +E  E E E   +E  E E E +E  E Q    Q  E E +E  E Q    E E E E +E  E +Q
|---------------3-|-(3)----------------|-----------------|-------2-(2)--------|
|----0--(0)-------|---------0-(0)------|------1-(1)------|-----3--------------|
|-----------0-----|-------0-------0----|------------0----|---2---------2-(2)--|
|-------------0---|-----0-----------0--|----2------------|-0------------------|
|-----------------|--------------------|-3------------3--|--------------------|
|-3---------------|--------------------|-----------------|--------------------|


  Bm                                       C                  D5
  Q  E E +E  E E E   +E  E E E +E  E E E   Q  E E +E  E E E   E E H.
|----------------2-|-(2)-----------------|------------------|-----------|
|------3-(3)-------|---------3-(3)-------|------1-(1)-------|---3-------|
|------------4-----|-------4-------4-----|------------0-----|-----2-----|
|----4---------4---|-----4-----------4---|----2---------0h2-|-0---------|
|-2----------------|-------------------0-|-3----------------|-----------|
|------------------|---------------------|------------------|-----------|


  Bm                                  D7
  Q  E E +E  E Q    Q  E E +E  E Q    E E E E +E  E +Q     +E  E E E +E  E Q
|-----------------|-2---------------|-------2-(2)--------|-----2--------------|
|------3-(3)------|------3-(3)---3--|-----1-------1-(1)--|-(1)---1-------1h3--|
|------------4----|-----------------|---2----------------|---------2-(2)------|
|----4---------4--|----4-------4----|-0------------------|--------------------|
|-2---------------|-----------------|--------------------|--------------------|
|-----------------|-----------------|--------------------|--------------------|


 Interlude

  Em      D   C             G        C       D   G
  E E E E  Q   Q    +Q   Q   Q  Q    E E E E  Q   Q    +E  E E E E E E E
|-------3-^2--^0--|------2---------|-------0-^2------|-------------------|
|-----0---^3--^1--|-(1)-----^3-----|-----1---^3--^3--|-(3)-0-------------|
|---0-----^2--^0--|-(0)-----^0--0--|---0-----^2--^0--|-(0)---------0-----|
|-2-------^0--^2--|-(2)-----^0-----|---------^0--^0--|-(0)---0h2-0-------|
|-------------^3--|---------^2-----|-3-----------^2--|---------------0h2-|
|-----------------|---------^3-----|-------------^3--|-(3)---------------|


  C      D/AG             C       D
  Q  E E Q   Q    +Q   Q   H      E E E E +E  E Q    E S S E E Q  Q
|--------2------|---------------|-------2-(2)------|---3p2-----------||
|--------3--^3--|-(3)--0--^1----|-----3-------3----|-------3------3--||
|------0-2--^0--|-(0)-----^0----|---2-----------2--|-2-------2-2-----||
|----2------^0--|-(0)-----^2----|-0----------------|-----------------||
|-3---------^2--|-(2)-----^3----|------------------|-----------------||
|-----------^3--|-(3)-----------|------------------|-----------------||



Tap to rate this tab
# A B C D E F G H I J K L M N O P Q R S T U V W X Y Z