Song name
# A B C D E F G H I J K L M N O P Q R S T U V W X Y Z

Rizal Underground - Sabado Nights tab




     Title:Sabado Nights
        by:Rizal Underground
 Tabbed by:Aztecs
    Tuning:ebgdae

 Pakinggan niyo muna itong song na ito tapos at saka niyo
 gawin yung solo ...yung start ng adlib sa tingin ko may
 kaunting mali pa ako pero sa last part nito sure na ako

 eto yung riffle
 e-------------|--15-15b---------|
 b-------------|-----------------|
 g-------------|-eto-yumg-last---|
 d--8h10p8-----|-----------------|
 a---------10--|-----------------|
 e-------------|-----------------|

 \-slide back
 b-bend
 p-pull-off
 /-slide
 h-hammmer
 ~-double bend

 Sabado Nights solo tab

 Solo:
 |------------------------------------------------------10---------------------|
|-----------------12b13--13-13-13-13-13--13/11--11b12------12-10---------------|
|-----------------------------------------------------------------9--12--9-----|
|--12~/10--8~--5---------------------------------------------------------------|
|------------------------------------------------------------------------------|
|------------------------------------------------------------------------------|
 ..dito may mga mali pa pero itama niyo na lang at saka doon sat aas..
|------------------------|------------12----12----12----12----12----12--12b\--|
|-------------------10b--|--12b13--13----13----13----13----13----13-----13b\--|
|--12p9--9p7---------9b--|----------------------------------------------------|
|-------------9--7-------|----------------------------------------------------|
|------------------------|----------------------------------------------------|
|------------------------|----------------------------------------------------|

|--------------------------------------------|
|--------------------------------------------|
|--------------------------------------------|
|-------3----------------5--8--5--8b--8b--5--|
|--3h5-----5--3------------------------------|
|----------------6--3b-----------------------|

|------5--7--5------------15-19-15-------15b-|--12-15-12----------------|-------15-------17-------19-------20-|
|----7---------7----15-17----------17--------|-----------12-15-12-15----|-------------------------------------|
|--7-------------7--------------------15-----|-----------------------14-|-14/16----16/17----17/19----19/21----|
|--------------------------------------------|--------------------------|-------------------------------------|
|--------------------------------------------|--------------------------|-------------------------------------|
|--------------------------------------------|--------------------------|-------------------------------------|
 ..Sigurado tama na yung part na ito..
Tap to rate this tab
 
# A B C D E F G H I J K L M N O P Q R S T U V W X Y Z