Song name
# A B C D E F G H I J K L M N O P Q R S T U V W X Y Z

Rizzle Kicks - Mama Do The Hump tab

This is the most accurate tab I've found, Rate please?

Tune slightly flat

Guitar chord part:
d-down
u-up
x-left hand mute
Strum: d du ud dud d du
         x  x  x     xx

-3----------------------------------------------|
-3----------------------------------------------|
-4----------------------------------------------|
-5----------------------------------------------|
------------------------------------------------|
------------------------------------------------|

To simulate the banjo part on guitar the tab is:
---------------------0---3-------------------|
---3---0---3---0---3-------------------------|
-----0-------0---------0---------------------|
-5-------5-------5---------------------------|
---------------------------------------------|
---------------------------------------------|
Tap to rate this tab
 
# A B C D E F G H I J K L M N O P Q R S T U V W X Y Z