Song name
# A B C D E F G H I J K L M N O P Q R S T U V W X Y Z

Rizzle Kicks - Travellers Chant tab

The song's pretty much the same right the way through, hope this helps!

Guitar Tab

Verse
---5---------------5-----------------------|
-6---6-8---6-6---6---6-8---6---------------|
---------7-----7---------7-----------------|
-------------------------------------------|
-------------------------------------------|
-------------------------------------------|

Chorus
-----10----0-----------------------------------|
-10--10-13-10----11-13-------------------------|
-10--10----10-12-10----------------------------|
-10--12----10----12----------------------------|
-----------------------------------------------|
-----------------------------------------------|

Middle8
-----10----0-----------------------------------|
-10--10----10----11----------------------------|
-10--10----10-9--10----------------------------|
-10--12----10----12----------------------------|
-----------------13----------------------------|
-----------------------------------------------|

-------10----0-----------------------------------|
-10-10-10----10-10-11----------------------------|
-10-9--10----10-9--10----------------------------|
-10----12----10----12----------------------------|
-------------------13----------------------------|
-------------------------------------------------|
Tap to rate this tab
# A B C D E F G H I J K L M N O P Q R S T U V W X Y Z