Song name
# A B C D E F G H I J K L M N O P Q R S T U V W X Y Z

Rj Jimenez - Miss Kita Pag Tuesday tab

Highlighted       Show chord diagrams
 Hello po !!Im John Donovan Bernabe... First Time ko po Mag Submit ng Tab..Sana Magustuhan nio...

Verse I

       A          E              F#m        D
|-----0----------------0--------------2-------------2---------|
|----2------T---------------T--------------T-------3------T---|
|---2-------A--------1------A--------------A------2-------A---|
|-----------P-------2-------P-------4------P--------------P---|
|----------------------------------4--------------------------|
|-------------------------------------------------------------|
  Every day tayoy ay magkasama,

        A          E              F#m        D
|-----0----------------0--------------2-------------2---------|
|----2------T---------------T--------------T-------3------T---|
|---2-------A--------1------A--------------A------2-------A---|
|-----------P-------2-------P-------4------P--------------P---|
|----------------------------------4--------------------------|
|-------------------------------------------------------------|
  Magkasama lagi sa iskwela.

        A          E              F#m        D
|-----0----------------0--------------2-------------2---------|
|----2------T---------------T--------------T-------3------T---|
|---2-------A--------1------A--------------A------2-------A---|
|-----------P-------2-------P-------4------P--------------P---|
|----------------------------------4--------------------------|
|-------------------------------------------------------------|
  Ang saya kapag recess at lunch break,

        A          E              F#m        D
|-----0----------------0--------------2-------------2---------|
|----2------T---------------T--------------T-------3------T---|
|---2-------A--------1------A--------------A------2-------A---|
|-----------P-------2-------P-------4------P--------------P---|
|----------------------------------4--------------------------|
|-------------------------------------------------------------|
  Tayong dalawa ay parang nag daaaate.

        A          E              F#m        D
|-----0----------------0--------------2-------------2---------|
|----2------T---------------T--------------T-------3------T---|
|---2-------A--------1------A--------------A------2-------A---|
|-----------P-------2-------P-------4------P--------------P---|
|----------------------------------4--------------------------|
|-------------------------------------------------------------|
  Oh oh oh yeeah..

        A          E              F#m        D
|-----0----------------0--------------2-------------2---------|
|----2------T---------------T--------------T-------3------T---|
|---2-------A--------1------A--------------A------2-------A---|
|-----------P-------2-------P-------4------P--------------P---|
|----------------------------------4--------------------------|
|-------------------------------------------------------------|
  Ganyan tayo almost everyday.

        A          E              F#m        D
|-----0----------------0--------------2-------------2---------|
|----2------T---------------T--------------T-------3------T---|
|---2-------A--------1------A--------------A------2-------A---|
|-----------P-------2-------P-------4------P--------------P---|
|----------------------------------4--------------------------|
|-------------------------------------------------------------|
  Pero pag tuesday… Heay namimiss kita… [Break]

CHORUS:
         A       E          F#m        D        A-E-F#m-D
OoOw.. monday, wednesday, thursday, friday, saturday..
    A        E         F#m        D      A-E-F#m-D
Ang lungkot ng araw pag dating ng tuesday.
 A           E    F#m       D
Everyday na sana tayong magkasama.
     A         E       F#m      D       A-E
Pero sayang talaga Di pwedeng ipilit pag tuesday.
  F#m         D      A-E
I hate this day of tuesday.
  F#m         D      A-E
I hate this day of tuesday
 F#m         D      A-E
I hate this day of tuesday
     A-E-F#m-D
Miss Kita Pag Tuesday...


Verse II: 
   A      E      F#m         D-A   
Tuesday ang araw niyo ng boyfriend mo
   E     F#m       D      A
Nakakainis di makaporma sayo
   E        F#m        D      A
Sira ang recess at lunchbreak ko
   E        F#m        D      A
Pag Tuesday talagang basted ako
   E-F#m-D-A
Oh hoh wo oh, yeahh
  E        F#m      D         A
Kumpleto nasana ang whole week ko
  F#m           D-A-E-F#m-D
Kasi naman pag Tuesday
        A-E-F#m-D
Nami-miss Kita

Refrain:

         A       E          F#m        D        A-E-F#m-D
OoOw.. monday, wednesday, thursday, friday, saturday..
    A        E         F#m        D      A-E-F#m-D
Ang lungkot ng araw pag dating ng tuesday.
 A           E    F#m       D
Everyday na sana tayong magkasama.
     A         E       F#m      D       A-E
Pero sayang talaga Di pwedeng ipilit pag tuesday.
  F#m         D      A-E
I hate this day of tuesday.
  F#m         D      A-E
I hate this day of tuesday
 F#m         D      A-E
I hate this day of tuesday
     A-E-F#m-D
Miss Kita Pag Tuesday...

Verse III:
 A          D             A
Ano ba ang meron sya na wala ako?
A                D         E
Kung nauna lang sana ako sa’yo
     F#m
Ang Tuesday ko
D          E
Oh anong saya


Refrain:
         A       E          F#m        D        A-E-F#m-D
OoOw.. monday, wednesday, thursday, friday, saturday..
    A        E         F#m        D      A-E-F#m-D
Ang lungkot ng araw pag dating ng tuesday.
 A           E    F#m       D
Everyday na sana tayong magkasama.
     A         E       F#m      D       A-E
Pero sayang talaga Di pwedeng ipilit pag tuesday.
  F#m         D      A-E
I hate this day of tuesday.
  F#m         D      A-E
I hate this day of tuesday
 F#m         D      A-E
I hate this day of tuesday
     A-E-F#m-D
Miss Kita Pag Tuesday...

Verse:IV

    A               E
At Isa pang dahilan kung bat ayaw ko ng tuesday…
  F#m-D
Kasi naman...
           A-E-F#m-D
Coding ako pag tuesday…
Coding ako pag tuesday…
Coding ako pag tuesday…

Coda :
		    A
 At Miss Kita Pag TUESDAY...

Thats All..Sana magustuhan nio...Paki Rate Nalang Po... At Pakinggan nio pla para 
nio ung strumming..Add nio din po ako sa Friendster vince_00000@yahoo.com
Thx

Elow Sa Silent Boyz.. Ng Roosevelt Cubao...^^ Kila Roden,Reynold,John Martin,Christian 
Franz
Hehe...
Tap to rate this tab
# A B C D E F G H I J K L M N O P Q R S T U V W X Y Z