Song name
# A B C D E F G H I J K L M N O P Q R S T U V W X Y Z

Rj Jimenez - Mis Kita Pag Tuesday tab

Tabbed by: Israel Arroyo
Song title: Mis Kita Pag Tuesday
Artist: Rj Jimenez
Message: First tab ko po ito. Pakirate nalang at pakilagay nalang sa comment kung may mali.Tnx.
       : I wana great my brothers and also my schoolm8.GFMNHS.
       : Suportahan nyo nga pala ang bandang DEKATA.SSC-R de cavite.


Standard tuning

^ - tap


Intro
     A    ^   E    ^   D    ^   E    ^
|-------5--------11-------5--------7------|
|-------5--------9--------5--------7------|
|-------5-----------------7--------9------|
|-----------7--------7--------9-----------|
|-----------7--------5--------7-----------|
|--5--------------------------------------|

Repeat 2x

Verse 1

     
    Every day tayo ay magkasama

     A    ^   E    ^   D    ^   E    ^
|-------5--------11-------5--------7------|
|-------5--------9--------5--------7------|
|-------5-----------------7--------9------|
|-----------7--------7--------9-----------|
|-----------7--------5--------7-----------|
|--5--------------------------------------|

Magkasama lagi sa eskwela
     A    ^   E    ^   D    ^   E    ^
|-------5--------11-------5--------7------|
|-------5--------9--------5--------7------|
|-------5-----------------7--------9------|
|-----------7--------7--------9-----------|
|-----------7--------5--------7-----------|
|--5--------------------------------------|

        Ang saya pag recess at lunch break
     A    ^   E    ^   D    ^   E    ^
|-------5--------11-------5--------7------|
|-------5--------9--------5--------7------|
|-------5-----------------7--------9------|
|-----------7--------7--------9-----------|
|-----------7--------5--------7-----------|
|--5--------------------------------------|

Tayong dalawa ang parang nag.dadate
     A    ^   E    ^   D    ^   E    ^
|-------5--------11-------5--------7------|
|-------5--------9--------5--------7------|
|-------5-----------------7--------9------|
|-----------7--------7--------9-----------|
|-----------7--------5--------7-----------|
|--5--------------------------------------|

		Ye..eh..ye..eh..ye..eh
     A    ^   E    ^   D    ^   E    ^
|-------5--------11-------5--------7------|
|-------5--------9--------5--------7------|
|-------5-----------------7--------9------|
|-----------7--------7--------9-----------|
|-----------7--------5--------7-----------|
|--5--------------------------------------|

                   Ganyan tayo almost

     A    ^   E    ^   D    ^   E    ^
|-------5--------11-------5--------7------|
|-------5--------9--------5--------7------|
|-------5-----------------7--------9------|
|-----------7--------7--------9-----------|
|-----------7--------5--------7-----------|
|--5--------------------------------------|

   everyday
     A    ^   E    ^   D    ^   E    ^
|-------5--------11-------5--------7------|
|-------5--------9--------5--------7------|
|-------5-----------------7--------9------|
|-----------7--------7--------9-----------|
|-----------7--------5--------7-----------|
|--5--------------------------------------|


       Pero       pag Tuesday

     A    ^   E    ^            A(bago mag-chorus)
|-------5--------7-----11-------5-----------|
|-------5--------7-----9--------5-----------|
|-------5--------9-----9--------6-----------|
|-----------9----------9--------7-----------|
|-----------7----------9--------7-----------|
|--5----------------------------5-----------|
Chorus:
     A        E        D        E
|----5--------7--------5--------7-----------|
|----5--------7--------5--------7-----------|
|----6--------9--------7--------9-----------|
|----7--------9--------7--------9-----------|
|----7--------7--------5--------7-----------|
|----5--------------------------------------|

Monday,Wednesday,Thursday,Friday,
     A        E        D        E
|----5--------7--------5--------11----------|
|----5--------7--------5--------9-----------|
|----6--------9--------7--------9-----------|
|----7--------9--------7--------x-----------|
|----7--------7--------5--------7-----------|
|----5--------------------------------------|
Saturday..
     A        E        D        E
|----5--------7--------5--------7-----------|
|----5--------7--------5--------7-----------|
|----6--------9--------7--------9-----------|
|----7--------9--------7--------9-----------|
|----7--------7--------5--------7-----------|
|----5--------------------------------------|
Ang lungkot ng araw pagdating ng 
     A        E        D        E
|----5--------7--------5--------11----------|
|----5--------7--------5--------9-----------|
|----6--------9--------7--------9-----------|
|----7--------9--------7--------x-----------|
|----7--------7--------5--------7-----------|
|----5--------------------------------------|
Tuesday
A        E        D        E
|----5--------7--------5--------7-----------|
|----5--------7--------5--------7-----------|
|----6--------9--------7--------9-----------|
|----7--------9--------7--------9-----------|
|----7--------7--------5--------7-----------|
|----5--------------------------------------|
Everyday na sana tayong magkasama
A        E        D        E
|----5--------7--------5--------11----------|
|----5--------7--------5--------9-----------|
|----6--------9--------7--------9-----------|
|----7--------9--------7--------x-----------|
|----7--------7--------5--------7-----------|
|----5--------------------------------------|
Pero sayang talaga ‘di pwedeng ipilit pag 
A        E        D        E
|----5--------7--------5--------7-----------|
|----5--------7--------5--------7-----------|
|----6--------9--------7--------9-----------|
|----7--------9--------7--------9-----------|
|----7--------7--------5--------7-----------|
|----5--------------------------------------|
Tuesday
A        E        D        E
|----5--------7--------5--------7-----------|
|----5--------7--------5--------7-----------|
|----6--------9--------7--------9-----------|
|----7--------9--------7--------9-----------|
|----7--------7--------5--------7-----------|
|----5--------------------------------------|
I hate this day of 
Tuesday
	A        E        D        E
|----5--------7--------5--------7-----------|
|----5--------7--------5--------7-----------|
|----6--------9--------7--------9-----------|
|----7--------9--------7--------9-----------|
|----7--------7--------5--------7-----------|
|----5--------------------------------------|
Mis kita pag Tuesday

Verse II: 
	A        E        D        E
|----5--------7--------5--------7-----------|
|----5--------7--------5--------7-----------|
|----6--------9--------7--------9-----------|
|----7--------9--------7--------9-----------|
|----7--------7--------5--------7-----------|
|----5--------------------------------------|

Tuesday ang araw niyo ng boyfriend mo
Nakakainis di makaporma sayo
Sira ang recess at lunchbreak ko
Pag Tuesday talagang basted ako
Oh hoh wo oh, yeahh
Kumpleto nasana ang whole week ko
Kasi naman pag Tuesday
            A------
Nami-miss Kita


Repeat Chorus:
C#m-D 2x
Verse III:

Aflat-D(x57755)-E(x22100) 2x(plucking)
Ano ba ang meron sya na wala ako?
Kung nauna lang sana ako sa’yo
Tuesday ko

G-A-----
Oh anong saya

Repeat Chorus:
I hate this day of Tuesday 3x
Verse IV:
 A             C#m-Bm         E          A    C#m-Bm
Isa pang dahilan   kung ba’t ayaw ko ng Tuesday
D      E-break
Kasi naman…
               A      E-D
Coding ako pag Tuesday..
        E      A      E-D
Coding ako pag Tuesday..
        E      A      E-D-E
Coding ako pag Tuesday..

A-E-D-E



Coda:
	        A
Mis kita pag Tuesday
Tap to rate this tab
 
# A B C D E F G H I J K L M N O P Q R S T U V W X Y Z