Song name
# A B C D E F G H I J K L M N O P Q R S T U V W X Y Z

Rj Melody - Hella Crazy tab

Standard Tuning (E A D G B E)

E--------------------------------------------------------------------|
A--------------------------------------------------------------------|
D--------6-s-6--6-s----7-s-6--6-s---------6-s-6--6-s----7-s-6-s-6-s--|
G--------4---4--4------7---7--7-----------4---4--4------7---7---7----|
B----5---5---5--5--0-7-7---7--7---0----5--5---5--5--0-7-7---7---7----|
A--------------------------------------------------------------------|


			after last slap:	heybaby,your hearts the
E----------------------------------------------------------------------------|
A--------------------------------------------------------taptap---slap-------|
D--------6-s-6--6-s----7-s-6-s-6-s---------6-s-6--6-s-6----------------------|
G--------4---4--4------7---7---7-----------4---4--4---4----------------------|
B-0--5---5---5--5--0-7-7---7---7------0-5--5---5--5---5----------------------|
A----------------------------------------------------------------------------|
Repeat the two above till you get to the part of the song:


For a walk, cuz today is a perfect day for love, a pefect day for love
E----------------------------------------------------------------------------|
A----------------------------------------------------------------------------|
D--------6-s-6--6-s----7-s-6--6-s---------6-s-6--6-s-------------------------|
G--------4---4--4------7---7--7-----------4---4--4------------------6--------|
B----5---5---5--5--0-7-7---7--7---0----5--5---5--5------------------4--------|
A---------------------------------------------------------0---------5--------|


then repeat first two bars of tabs

S= slap
Tap to rate this tab
# A B C D E F G H I J K L M N O P Q R S T U V W X Y Z