Song name
# A B C D E F G H I J K L M N O P Q R S T U V W X Y Z

Rjd2 - Under The Hammer tab

e|-------------------|----------------|----------------|------------------|
b|-------------------|----------------|----------------|------------------|
g|-------------------|----------------|----------------|------------------|
d|-------------------|----------------|----------------|------7---5/6/7~--|
a|-------------------|----------------|----------------|------------------|
e|--10-10-10-10-10---|--8-8-8-8-8-----|--7-7-7-7-7-----|--5---------------|


there is a variation that is something like this:
e|--------------------------------|---------------------------|
b|--------------------------------|---------------------------|
g|--------------------------------|---------------------------|
d|--------------------------------|---------------------------|
a|---------------------9/10/11/12-|-----------------7/8/9/10--|
e|--10-10-10-10-10----------------|---8-8-8-8-8---------------|

e|------------------------|------------------|
b|------------------------|------------------|
g|------------------------|------------------|
d|------------------------|------7---5/6/7~--|
a|----------------5/6/7/8-|------------------|
e|---7-7-7-7-7------------|--5---------------|
Tap to rate this tab
 
# A B C D E F G H I J K L M N O P Q R S T U V W X Y Z