Song name
# A B C D E F G H I J K L M N O P Q R S T U V W X Y Z

Rjd2 - Ghostwriter tab

  I am too lazy to tab the whole song, so this 
  is just the first part of it.
  But with these riffs, it should be pretty easy 
  to figure the rest. 


 e|------------------------------------------|
 B|------------------------------------------| 
 G|-----6---6---6---6---6---6---6---6--------| X3
 D|-----7---7---7---7---7---7---7---7--------|
 A|---7---7---7---7---6---6---6---6----------|
 E|------------------------------------------|


 e|------------------------------------------|
 B|------------------------------------------|
 G|-----6---6---6---6---6---6---6---6--------|
 D|-----7---7---7---7---7---7---7---7--------|
 A|---7---7---8---8---9---9---9---9----------|
 E|------------------------------------------|

         And then the beat kicks in!
 
 e|------------------------------------------|
 B|------------------------------------------|
 G|-----6---6---6---6---6---6---6---6--------|
 D|-----7---7---7---7---7---7---7---7--------| X4
 A|---9---9---8---8---7---7---6---6----------|
 E|------------------------------------------| 


 e|------------------------------------------|
 B|------------------------------------------|
 G|-----2---2--2-------2---2---2-------------|
 D|-----2---2--3-------2---2---3-------------|
 A|---5---5------5-5-5---5-------------------|
 E|------------------------------------------| 


 Enjoy!
Tap to rate this tab
# A B C D E F G H I J K L M N O P Q R S T U V W X Y Z