Song name
# A B C D E F G H I J K L M N O P Q R S T U V W X Y Z

Rkl - Sargasm tab

Band: Rich Kids on Lsd
Song: Sargasm
Album: Rock 'n' Roll Nightmare
Year: 1987

Ok this is my first tab so I don't know if it's right the way I wrote the stuff here..
I saw that there wasn't enough tab for THE BEST BAND EVER, so here's what I got with my ears,
I don't think it is all correct (as well as my English), but who gives a damn, it sounds 
pretty well in my opinion...
Just listen and figure it out..

Intro:

E|----------------------------------|
B|--14-14---11-11---9-9-9-----------|
G|--14-14---11-11---9-9-9-----------|
D|--14-14---11-11---9-9-9-----------|
A|--12-12---9-9-----7-7-7-----------|
E|----------------------------------|


First riff:

E|--7-7--7-7-7--5/-7-7--7-7-7-----3--3-3-3-------0---0----------|
B|--7-7--7-7-7--5/-7-7--7-7-7-----3--3-3-3-------0---0----------|
G|--8-8--8-8-8--6/-8-8--8-8-8-----4--4-4-4----1-(1)-(1)---------|
D|--9-9--9-9-9--7/-9-9--9-9-9-----5--5-5-5----2-(2)-(2)---------|
A|--9-9--9-9-9--7/-9-9--9-9-9-----5--5-5-5----2-(2)-(2)---------|
E|--7-7--7-7-7--5/-7-7--7-7-7-----3--3-3-3----0-(0)-(0)---------|

E|--7-7--7-7-7--5/-7-7--7-7-7-----3--3-3-3-3-3-*-------5-5-5----|
B|--7-7--7-7-7--5/-7-7--7-7-7-----3--3-3-3-3-3-*-------5-5-5----|
G|--8-8--8-8-8--6/-8-8--8-8-8-----4--4-4-4-4-4-*-------6-6-6----|
D|--9-9--9-9-9--7/-9-9--9-9-9-----5--5-5-5-5-5-*-------7-7-7----|
A|--9-9--9-9-9--7/-9-9--9-9-9-----5--5-5-5-5-5-*-------7-7-7----|
E|--7-7--7-7-7--5/-7-7--7-7-7-----3--3-3-3-3-3-*-------5-5-5----|

* = stop the string

Chorus:

   SAR-GA-SM !!!!		 (A tactic we use!)
E|--7--7--7---------------------5-5-5-5-------0---0---0---------|
B|--7--7--7---------------------5-5-5-5-------0---0---0---------|
G|--8--8--8---------------------6-6-6-6----1-(1)-(1)-(1)--------|
D|--9--9--9--------------7------7-7-7-7----2-(2)-(2)-(2)--------|
A|--9--9--9----7-8-9-9-9---9-8--7-7-7-7----2-(2)-(2)-(2)--------|
E|--7--7--7---------------------5-5-5-5----0-(0)-(0)-(0)--------|

             (try to pick a lot
                   here)
  STRA-TE-GY !!!!
E|--7--7--7---------------------5-5-5-5-------0---0---0---------|
B|--7--7--7---------------------5-5-5-5-------0---0---0---------|
G|--8--8--8---------------------6-6-6-6----1-(1)-(1)-(1)--------|
D|--9--9--9--------------7------7-7-7-7----2-(2)-(2)-(2)--------|
A|--9--9--9----7-8-9-9-9---9-8--7-7-7-7----2-(2)-(2)-(2)--------|
E|--7--7--7---------------------5-5-5-5----0-(0)-(0)-(0)--------|


Second riff:

E|------------------------------5-5-5-----------------|
B|------------------------------5-5-5-----------------|
G|------------------------------6-6-6-----------------|
D|--5-5--5-5-5--5-5-5--5-5-5----7-7-7-------5-7-------|
A|--5-5--5-5-5--5-5-5--5-5-5----7-7-7---6-7-----------|
E|--3-3--3-3-3--3-3-3--3-3-3----5-5-5-----------------|


   | pm  |    |  pm   |     |  pm   |       | pm    pm    pm   |
E|--------5------------5-------------5---------------------------------0---|
B|--------5------------5-------------5---------------------------------0---|
G|--------6------------6-------------6---------------------------------1---|
D|--9---9\7----9-9---9\7-----9-9---9\7-----------------------------2--(2)--|
A|--9---9\7----9-9---9\7-----9-9---9\7-----------------------------2--(2)--|
E|--7---7\5----7-7---7\5-----7-7---7\5-------2--1--0---2--3--4-----0--(0)--|

                                           (I'm quite sure this
                                            210234 is wrong but
                                            sounds similar....)

   | pm   |
E|-------------------------|
B|-------------------------|
G|------------------7------|
D|--4-4--4\2--4*----7------|
A|--4-4--4\2--4*----5------|
E|--2-2--2\0--2*-----------|


   | pm  |    |  pm   |     |  pm   |       | pm    pm    pm   |
E|--------5------------5-------------5----------------------------------0--|
B|--------5------------5-------------5----------------------------------0--|
G|--------6------------6-------------6----------------------------------1--|
D|--9---9\7----9-9---9\7-----9-9---9\7------------------------------2--(2)-|
A|--9---9\7----9-9---9\7-----9-9---9\7------------------------------2--(2)-|
E|--7---7\5----7-7---7\5-----7-7---7\5-------2--1--0---2--3--4------0--(0)-|

   | pm   |
E|-------------------------|
B|-------------------------|
G|-------------------------|
D|--4-4--4\2--4------------|
A|--4-4--4\2--4------------|
E|--2-2--2\0--2------------|

   | pm   pm   pm   pm   pm   pm   pm   pm  pm   pm   |
E|--------------------------------------------------------5-----------------|
B|--------------------------------------------------------5-----------------|
G|--------------------------------------------------------6---------5-------|
D|--5--5-5-5--5-5-5--5-5-5--5-5-5--5-5-5--5-5-5--5-5-5----7-----5-----7-----|
A|--5--5-5-5--5-5-5--5-5-5--5-5-5--5-5-5--5-5-5--5-5-5----7-6-7---7---------|
E|--3--3-3-3--3-3-3--3-3-3--3-3-3--3-3-3--3-3-3--3-3-3----5-----------------|


Bridge :
        | pm  |      | pm |     |pm   |
E|---------------------------------------------------------|
B|---------------------------------------------------------|  Repeat 4 times.
G|---------------------------------------------------------|
D|--0-----------0-----------0----------------4-4-2-4-7-----|
A|----2-----------2-----------2--------------4-4-2-4-7-----|
E|--------332-0-------332-0------332-0-------2-2-0-2-5-----|



E|--------------------------------5------------8-------|
B|--------------------------------5--------8-----10----|
G|--------------------------------6----8-9---9---------|
D|--5-5--5-5-5--5-5-5--5-5-5------7--------------------|
A|--5-5--5-5-5--5-5-5--5-5-5------7--------------------|
E|--3-3--3-3-3--3-3-3--3-3-3------5--------------------|


Bridge 2 :


E|--2-------5-----|
B|--2---7---5-----|
G|--3---7---6-----|
D|--4---7---7-----|
A|--4---5---7-----|
E|--2-------5-----|


First riff.

Chorus.

Second riff.


Outro:


E|-----------------------------------------------------------------|
B|----------7---7-----------7---7----------7---7---7-7*---9-9*-----|
G|---9b(11)---9-----9b(11)----9-----9b(11)---9-----7-7*---9-9*-----|
D|-------------------------------------------------7-7*---9-9*-----|
A|-------------------------------------------------5-5*---7-7*-----|
E|-----------------------------------------------------------------|

Not sure about that, figure it out bending.
Play that 4 times and then add the riff below :

E|-----------------------5-5--7-----------|
B|--7-7*---9-9*---7-7*---5-5--7--9-9-9-9--|
G|--7-7*---9-9*---7-7*---6-6--8--9-9-9-9--|
D|--7-7*---9-9*---7-7*---7-7--9--9-9-9-9--|
A|--5-5*---7-7*---5-5*---7-7--9--7-7-7-7--|
E|-----------------------5-5--7-----------|




If there are any errors just play what you think it's right and feel free to email me
(nikohardcore (at) gmail (dot) com),
I'll tab other songs soon although if you spend a couple of months
listening to them you'll automatically know if what you're playing
sounds correct or not.
cheers.
Tap to rate this tab
# A B C D E F G H I J K L M N O P Q R S T U V W X Y Z