Song name
# A B C D E F G H I J K L M N O P Q R S T U V W X Y Z

Rl Burnside - Bad Luck City tab

Help us improve GuitareTab! Take a short survey!
-----------------------------------------------------------------------------
			     Bad Luck City - R.L. Burnside
-----------------------------------------------------------------------------
Tabbed by: -Carl.
Email: -mutatedidiot@aol.com

Tuning: -Standard.

e|--10-----5--------------------------------------|
B|--11-----6--------------------------------------|
G|--12-----7--------------------------------------|
D|------------------------------------------------|
A|------------------------------------------------|
E|------------------------------------------------|

   ^Listen to the song to work out how many times you play each chord.

e|------------------------------------------------|
B|------------------------------------------------|
G|------------------------------------------------|
D|------------------------------------------------|
A|------3-3-3--3-5--------------------------------|
E|--3h5-------------------------------------------|

   ^This riff varies.

There are more riffs, and extra parts, but what do you think I am?
Do it yourself. Gaaaaaaawd.

I need a shower.
Related for Bad Luck City tab