Song name
# A B C D E F G H I J K L M N O P Q R S T U V W X Y Z

Rl Burnside - Let My Baby Ride tab

Help us improve GuitareTab! Take a short survey!
-------------------------------------------------------------------------------
Let My Baby Ride - R.L. Burnside Feat. Cedric Burnside
-------------------------------------------------------------------------------
Tabbed by: D. Merkel
Email: d1p1m@yahoo.com

Tuning: E A D G B e

e|---------------------------------------------------------------------------|
B|---------------------------------------------------------------------------|
G|--------------7--7--5--5-----------7--7--5--5-----------7--7--5--5---------|
D|------9--9--X-5--5--3--3--9--9--X--5--5--3--3--9--9--X--5--5--3--3---------|
A|------7--7--X-------------7--7--X--------------7--7--X---------------------|
E|---------------------------------------------------------------------------|

e|---------------------------------------------------------------------------|
B|---------------------------------------------------------------------------|
G|--------------7--7--5--5-----------7--7--5--5-----------7--7--5--5---------|
D|------9--9--X-5--5--3--3--9--9--X--5--5--3--3--9--9--X--5--5--3--3---------|
A|------7--7--X-------------7--7--X--------------7--7--X---------------------|
E|---------------------------------------------------------------------------|

e|-11-11-11------------------------------------------------------------------|
B|-11-11-11--9----------------9---------11-11-9-9------9---------------------|
G|-------------10-10-10--8-10---10-10---10-10-8-8-8-10---10-10---------------|
D|---------------------------------------------------------------------------|
A|---------------------------------------------------------------------------|
E|---------------------------------------------------------------------------|
	After the little riff, there’s a pause where he says, “won’t ya let my baby 	ride, 
a couple of times, and it starts all over again.


| /  slide up
| \  slide down
| h  hammer-on
| p  pull-off
| ~  vibrato
| +  harmonic
| x  Mute note
===============================================================================
Related for Let My Baby Ride tab