Song name
# A B C D E F G H I J K L M N O P Q R S T U V W X Y Z

Rl Burnside - Rollin Remix tab

(This song is be played with a slide)

e|-------------------------------------------------------------------------|
B|-------------------------------------------------------------------------|
G|--0-0--3-\4--0--0-0--0-0--3-\4--0--0-0--0-0--3-\4--0--0-0--0-0--3-\4--0-0|
D|--0-0--3-\4--0--0-0--0-0--3-\4--0--0-0--0-0--3-\4--0--0-0--0-0--3-\4--0-0|
A|-------------------------------------------------------------------------|
E|-------------------------------------------------------------------------|


e|-------------------------------------------------------------------------|
B|-------------------------------------------------------------------------|
G|--5-5-5--5--/3-\5-5-/3-0-------------------------------------------------|
D|--5-5-5--5--/3-\5-5-/3-0-------------------------------------------------|
A|-------------------------------------------------------------------------|
E|-------------------------------------------------------------------------|
(After this little riff play the first part then come back to it)Repeat this twice then play this:

e|-------------------------------------------------------------------------|
B|-------------------------------------------------------------------------|
G|--7-7--7--7-/5-5--5-\8-/3-0----------------------------------------------|
D|--7-7--7--7-/5-5--5-\8-/3-0----------------------------------------------|
A|-------------------------------------------------------------------------|
E|-------------------------------------------------------------------------|

      -------------------------END------------------------------
Tap to rate this tab
# A B C D E F G H I J K L M N O P Q R S T U V W X Y Z