Guitaretab - guitar tabs
Song name
# A B C D E F G H I J K L M N O P Q R S T U V W X Y Z

Road Less Traveled - Listen To The Whisper tab

Listen to the Whisper
Road Less Traveled

Hey, this is a local band and they are awesome.

Chords

E5IIV:  X799XX
C5:     X355XX
D5:     X577XX
E5:     022XXX

Intro:
E|---------------------------------------------------------------|
A|-7---7-X-X--7---7-7-7-7-X-X---7---7-X-X--7---7---7-7-7-7-X-X---|
D|-7h9-9-X-X--7h9-9-9-9-9-X-X---7h9-9-X-X--7h9-9---9-9-9-9-X-X---|
G|-7h9-9-X-X--7h9-9-9-9-9-X-X---7h9-9-X-X--7h9-9---9-9-9-9-X-X---|
B|-7h8-8-X-X--7h8-8-8-8-8-X-X---7h9-8-X-X--7h8-8---8-8-8-8-X-X---|
e|-7---7-X-X--7---7-7-7-7-X-X---7---7-X-X--7---7---7-7-7-7-X-X---|
[ Tab from: http://www.guitaretab.com/r/road-less-traveled/43458.html ]
E|-----------------------------------------|
A|-3--3--3-3--3-3-3-3-3/5--5-5-5--X-X-X-X--|
D|-5--5--5-5--5-5-5-5-5/7--7-7-7--X-X-X-X--|
G|-5--5--5-5--5-5-5-5-5/7--7-7-7--X-X-X-X--|  x2
B|-5--5--5-5--5-5-5-5-5/7--7-7-7--X-X-X-X--|
e|-3--3--3-3--3-3-3-3-3/5--5-5-5--X-X-X-X--|

Then this:  E5IIV C5 slide to D5 then slide up to E5IIV and do one more time

Verse:
   *  *       * * * * *
E|-0--0--2/3--0-0-0-0-0--2/3----------------------------------------|
A|-2--2-------2-2-2-2-2----------------3--/--5----------------------|
D|-2--2-------2-2-2-2-2----------------2--/--4----------------------|
G|----------------------------ECT------0--/--0----------------------|
B|-------------------------------------1--/--3----------------------|
e|-------------------------------------0--/--0----------------------|

CHORUS IS SAME AS SECOND PART OF INTRO

IM NOT QUITE DONE TABBING THE SOLO, BUT ITS MOSTLY ON THE 12TH FRET MINOR PENATONIC SCALE (IN E).  ITS NOT 
HARD
YALL ALL SUPPORT RLT!