Song name
# A B C D E F G H I J K L M N O P Q R S T U V W X Y Z

Road Of Major - Yume Oui Hito tab

Artist: Road of Major
Song: Yume Oui Hito
Album: Road of Major
Tuning: standard

Intro

Part 1

e|----------------------------------
B|----------------------------------
G|-----------4----4-----------------
D|4--4-4-4-4-4----4-2--2-2-2-2-4----        (2x)
A|4--4-4-4-4-2----2-2--2-2-2-2-4----
E|2--2-2-2-2--------0--0-0-0-0-2----

Part 2

e|--------------------------5-7-5-7-5-7-
B|7-5---5-7-5---5-7-5---5-7-------------
G|----6-------6-------6-----------------
D|--------------------------------------    (2x)
A|--------------------------------------
E|--------------------------------------

Part 3

e|--------------
B|7-5---5-7-5---
G|----6-------6-
D|--------------
A|--------------
E|--------------
Tap to rate this tab
# A B C D E F G H I J K L M N O P Q R S T U V W X Y Z