Song name
# A B C D E F G H I J K L M N O P Q R S T U V W X Y Z

Roadburg - Instant Flowers tab

------------------------------------------------------------------------|
------------------------------------------------------------------------|
------------------------------------------------------------------------|
---9-----9-7---7-9-----9-7---7------------------------------------------|
-------------9-------------9---7----7-9--7--------9-7----7---9-7--------|
-------------------------------------------10-7-------10---------7------|

-------------------------------------------------------------------------|
-------------------------------------------------------------------------|
----------------9---11--9------------------------------------------------|
--------------------------12-9-----7---5---------------------------------|
-------7-9-7-------------------------------7-----------------------------|
--7-10-------------------------------------------------------------------|
Tap to rate this tab
 
# A B C D E F G H I J K L M N O P Q R S T U V W X Y Z