Song name
# A B C D E F G H I J K L M N O P Q R S T U V W X Y Z

Roadrunner United - Roads tab

this sounds way better then the other tab of road!!!


intro

---------------------------------------------|
---------------------------------------------|
---------------------------------------------|
------0---0---0---0-----0---0---0---0--------|
-----2---2---2---2-----0---0---0---0---------|
---------------------------------------------|

---------------------------------------------|
---------------------------------------------|
---------------------------------------------|
-------0---0---0---0-------------------------|
-------------------------2---2---2---2-------|
-----3---3---3---3-----0---0---0---0---------|
Tap to rate this tab
# A B C D E F G H I J K L M N O P Q R S T U V W X Y Z