Song name
# A B C D E F G H I J K L M N O P Q R S T U V W X Y Z

Roadrunner United - No Mas Control tab

Intro:

E |-------------------------------------------|
B |-------------------------------------------|
G |-------------------------------------------|
D |--0-0-0-1-1-1-1-1-0-0-0-5-7-5-3-3-3-3-0-0-0|
A |--0-0-0-1-1-1-1-1-0-0-0-5-7-5-3-3-3-3-0-0-0|
D |--0-0-0-1-1-1-1-1-0-0-0-5-7-5-3-3-3-3-0-0-0|

E |-------------------------------------------|
B |-------------------------------------------|
G |-------------------------------------------|
D |--0-0-0-8-8-8-8-8--5-3-3-1~----------------|
A |--0-0-0-8-8-8-8-8--5-3-3-1~----------------|
D |--0-0-0-8-8-8-8-8--5-3-3-1~----------------|

Verse:

E |-------------------------------------------|\
B |-------------------------------------------| \
G |-------------------------------------------| \
D |-000000-0-0-0-0-0---00333333-3-3-3-3-3-----| x 4
A |-000000-0-0-0-0-0---00333333-3-3-3-3-3-----| /
D |-000000-0-0-0-0-0---00333333-3-3-3-3-3-----|/
...... . . . ........ . . .

Chorus: ( I Gotta Get Out..!)

E |------------------------------------------------|\
B |------------------------------------------------| \
G |------------------------------------------------| \
D |-------0-0-0-1-1-1-1-1-0-0-0-5-7-5-3-3-3-3-0-0-0| x 2
A |-------0-0-0-1-1-1-1-1-0-0-0-5-7-5-3-3-3-3-0-0-0| /
D |---12\-0-0-0-1-1-1-1-1-0-0-0-5-7-5-3-3-3-3-0-0-0|/

E |------------------------------------------------------|
B |------------------------------------------------------|
G |------------------------------------------------------|
D |---1-0-0-1-0-0-1-0-0-1-3~-----------------------------|
A |---1-0-0-1-0-0-1-0-0-1-3~-----------------------------|
D |---1-0-0-1-0-0-1-0-0-1-3~-----------------------------|
. . . . . . . . . .

Verse:

E |-------------------------------------------|\
B |-------------------------------------------| \
G |-------------------------------------------| \
D |-000000-0-0-0-0-0---00333333-3-3-3-3-3-----| x 4
A |-000000-0-0-0-0-0---00333333-3-3-3-3-3-----| /
D |-000000-0-0-0-0-0---00333333-3-3-3-3-3-----|/
...... . . . ........ . . .

Chorus:

E |-------------------------------------------|
B |-------------------------------------------|
G |-------------------------------------------|
D |--0-0-0-1-1-1-1-1-0-0-0-5-7-5-3-3-3-3-0-0-0|
A |--0-0-0-1-1-1-1-1-0-0-0-5-7-5-3-3-3-3-0-0-0|
D |--0-0-0-1-1-1-1-1-0-0-0-5-7-5-3-3-3-3-0-0-0|

E |---------------------------------------------|\
B |---------------------------------------------| \
G |-------------------------10-10-10-------8-8-8| x 2
D |-----1-0-0-1-0-0-1--33333---------33333------| /
A |-----1-0-0-1-0-0-1--33333---------33333------|/
D |-----1-0-0-1-0-0-1--33333---------33333------/
..... .....
Interlude:

E |-----------------------------------------------|\
B |-----------------------------------------------| \
G |--------6-5-6------5-4-4-----6-5-6------5-4-4--| \
D |---0000-------0000------0000-------0000--------| x 4
A |---0000-------0000------0000-------0000--------| /
D |---0000-------0000------0000-------0000--------| /
.... .... .... ....

E |---------------------------------------------|
B |---------------------------------------------|
G |---------------------------------------------|
D |--00000--00000-------------------------------|
A |--00000--00000-------------------------------|
D |--00000--00000-------------------------------|
..... .....

Acoustic solo to chorus: (clean)- Basically same as the main riff

E |----------------------------------------------------|
B |--000-1-1-1-1-1-5-7-3-3-3-3-3-1-1-1-1-1-3-3-3-1-1-3~|
G |--000-1-1-1-1-1-5-7-3-3-3-3-3-1-1-1-1-1-3-3-3-1-1-3~|
D |--000-1-1-1-1-1-5-7-3-3-3-3-3-1-1-1-1-1-3-3-3-1-1-3~|
A |--000-0-0-0-0-0-0-0-0-0-0-0-0-0-0-0-0-0-0-0-0-0-0-0~|
D |--000-0-0-0-0-0-0-0-0-0-0-0-0-0-0-0-0-0-0-0-0-0-0-0~|

Chorus:

E |-------------------------------------|
B |-------------------------------------|
G |-------------------------------------|
D |--0-0-0-1~--0-0-0-5-7-5-3-3-3-3-0-0-0|
A |--0-0-0-1~--0-0-0-5-7-5-3-3-3-3-0-0-0|
D |--0-0-0-1~--0-0-0-5-7-5-3-3-3-3-0-0-0|

E |---------------------------------------------|
B |---------------------------------------------|
G |-------------------------10-10-10-------8-8-8|
D |-----1-0-0-1-0-0-1--33333---------33333------|
A |-----1-0-0-1-0-0-1--33333---------33333------|
D |-----1-0-0-1-0-0-1--33333---------33333------|
..... .....

End riff:
E |--------------------------|
B |--------------------------|
G |--------6-5-6------5-4-4--|
D |---0000-------0000--------|
A |---0000-------0000--------|
D |---0000-------0000--------|
.... .... 
Tap to rate this tab
 
# A B C D E F G H I J K L M N O P Q R S T U V W X Y Z