Song name
# A B C D E F G H I J K L M N O P Q R S T U V W X Y Z

Roar - Heart For Brains tab

Chords used:

    D            G                 G#               A                F#m          Bm
e.--5------------3-----------------4----------------5-----------------2-----------2---|
B--7-------------3-----------------4--------------- 5-----------------2-----------3---|
G--7-------------4-----------------5----------------6-----------------2-----------4---|
D--7-------------5-----------------6----------------7-----------------4-----------4---|
A--5-------------5-----------------6----------------7-----------------4-----------2---|
E--5-------------3-----------------4----------------5-----------------2-----------2---|




Intro
e--2---------9-----------2-------0--------5-------2----------5--------2---------|
B-----3---------7-----------3------3---------0-------0----------2--------2------|
G--------2---------7-----------4------4---------0-------0----------2--------2---|
D--0------------------------------------------------------ ---------------------|
A------------------------2-----------------------------------0------------------|
E-----------------------------------------3-------------- ----------------------|

D                                             G
Heart for brains you should have known.
G    G#   A    A    G#   G
Take a seat with the weak
      D                    G
 but stand up for me.
D                            G
Stand up for me

Mercilessly slaughtering...
When the sick feed the strong,
the pack marches on.
Pack marches on

D                          F#m              Bm         G
Life's hard when you're soft but you've got our love.
D                          F#m              Bm         G
Life's hard when you're soft but you've got our love.

Intro riff

Shit for brains you're living proof
that it pays to be hard
on those around you.

But the wolves who guard their wounds,
hide their limps and their health
are all eaten too.
They’re all eaten too

Life's hard when you're soft but you've got our love.
Life's hard when you're soft but you've got our love.
Life's hard when you're soft but you've got our love.
Life's hard when you're soft but you've got our love.

Life's hard when you're soft but you've got our love.

(Ends jamming on a D with distortion)

http://roartheband.tumblr.com/
Tap to rate this tab
# A B C D E F G H I J K L M N O P Q R S T U V W X Y Z