Song name
# A B C D E F G H I J K L M N O P Q R S T U V W X Y Z

Roark - Ask Myself tab

repeat 3x
|--------------------------5---3|
|-------------------------------|
|--7---7---7---7---7---7--------|
|--4h5-7---2---0---4h5-7--------|
|-------------------------------|
|-------------------------------|

after the three repeats play this
|----------5---3--------------------------5---3-----------5---3----------|
|------------------------------------------------------------------------|
|--7---7----------7---7---7---7---7---7-----------7---7------------------|
|--4h5-7----------4h5-7---2---0---4h5-7-----------4h5-7------------------|
|------------------------------------------------------------------------|
|------------------------------------------------------------------------|

"so ill put on a _____________" is were im stopping for now

email me if you think theres anything wrong with this song's intro at hubbabubbamaxx@aol.com
Tap to rate this tab
# A B C D E F G H I J K L M N O P Q R S T U V W X Y Z