Song name
# A B C D E F G H I J K L M N O P Q R S T U V W X Y Z

Roark - Into Pieces tab

This is my first tab.  It sounds about right and is fun to play once you get the hang of 
 Finding the strumming pattern is the hardest part, also watch for timing.

Standard Tuning- Capo on the 3rd fret

Intro
|----3-----3p2---2-----2h3-|--3-----3p2---2-----2h3--|
|----3-----3-----3-----3---|--3-----3-----3-----3----|
|----2-----0-----0-----0---|--0-----0-----0-----0----|
|----2-----2-----2-----2---|--0-----0-----0-----0----|
|--------------------------|--3-----3-----3-----3----|
|--------------------------|-------------------------|

|----3-----3p2---2-----2h3-|--3-----3p2---2-----2h3--|
|----3-----3-----3-----3---|--3-----3-----3-----3----|
|----0-----0-----0-----0---|--2-----2-----2-----2----|
|----0-----0-----0-----0---|--0-----0-----0-----0----|
|----x-----x-----x-----x---|-------------------------|
|----3-----3-----3-----3---|-------------------------|


Verse
|----3-----3p2---2-----2h3-|--3-----3p2---2-----2h3--|
|----3-----3-----3-----3---|--3-----3-----3-----3----|
|----2-----0-----0-----0---|--0-----0-----0-----0----|
|----2-----2-----2-----2---|--0-----0-----0-----0----|
|--------------------------|--3-----3-----3-----3----|
|--------------------------|-------------------------|

|----3-----3p2---2-----2h3-|--3-----3p2---2-----2h3--|
|----3-----3-----3-----3---|--3-----3-----3-----3----|
|----0-----0-----0-----0---|--2-----2-----2-----2----|
|----0-----0-----0-----0---|--0-----0-----0-----0----|
|----x-----x-----x-----x---|-------------------------|
|----3-----3-----3-----3---|-------------------------|

|----3-----3p2---2-----2h3-|--3-----3p2---2-----2h3--|
|----3-----3-----3-----3---|--3-----3-----3-----3----|
|----2-----0-----0-----0---|--0-----0-----0-----0----|
|----2-----2-----2-----2---|--0-----0-----0-----0----|
|--------------------------|--3-----3-----3-----3----|
|--------------------------|-------------------------|

|----3-----3p2---2-----2h3-|--2----------------------|
|----3-----3-----3-----3---|--0----------------------|
|----0-----0-----0-----0---|--2----------------------|
|----0-----0-----0-----0---|--1----------------------|
|----x-----x-----x-----x---|--2----------------------|
|----3-----3-----3-----3---|-------------------------|


Chorus
|----3-----3-----2---|--3---3---3-----3---|--2-----3-----3---|
|----3-----3-----0---|--3---3---3-----3---|--0-----3-----3---|
|----0-----0-----2---|--0---0---0-----0---|--2-----0-----2---|
|----0-----0-----1---|--0---0---0-----0---|--1-----0-----0---|
|----3-----x-----2---|--3---2---3-----x---|--2-----3---------|
|----------3---------|----------------3---|------------------|


Break
|----3-----3p2---2-----2h3-|--3-----3p2---2-----2h3--|
|----3-----3-----3-----3---|--3-----3-----3-----3----|
|----2-----0-----0-----0---|--0-----0-----0-----0----|
|----2-----2-----2-----2---|--0-----0-----0-----0----|
|--------------------------|--3-----3-----3-----3----|
|--------------------------|-------------------------|

|----3-----3p2---2-----2h3-|--3-----3p2---2-----2h3--|
|----3-----3-----3-----3---|--3-----3-----3-----3----|
|----0-----0-----0-----0---|--2-----2-----2-----2----|
|----0-----0-----0-----0---|--0-----0-----0-----0----|
|----x-----x-----x-----x---|-------------------------|
|----3-----3-----3-----3---|-------------------------|


Bridge
|----3----2h3-3---3----3---------|--0---|
|----3----3---3---3----3---------|--2---|
|----2----2---2---0----0-----x2--|--0---|
|----0----0---0---0----0---------|--2---|
|----2------------x----3---------|--0---|
|-----------------3--------------|------|

Outro
|----3----x----3----3--|--x----3----3----2h3--3--------|
|----3----x----3----3--|--x----3----3----3----3--------|
|----0----x----0----0--|--x----0----0----2----2----x2--|
|----0----x----0----0--|--x----0----0----0----0--------|
|----3----x----3----x--|--x----x----2------------------|
|---------x---------3--|--x----3-----------------------|

         Play softly            |end on|
|----3----3p2--2----2h3---------|--3---|
|----3----3----3----3-----------|--3---|
|----0----0----0----0------x4---|--0---|
|----0----0----0----0-----------|--0---|
|----3----3----3----3-----------|--3---|
|-------------------------------|------|

Order:

intro
verse
chorus
break
verse
chorus
bridge
chorus
outro


http://www.roarkmusic.com/
Tap to rate this tab
 
# A B C D E F G H I J K L M N O P Q R S T U V W X Y Z