Song name
# A B C D E F G H I J K L M N O P Q R S T U V W X Y Z

Roark - Never Felt So Lucky tab

Easy but good song, sounds somewhat right.  Enjoy!

Standard tuning- E B G D A E


Intro                            .... = palm mute
|-----------------|                ~~ = let it ring
|-----------------|
|----7---6--------|
|----7---7---x8---|
|----9---9--------|
|-----------------|

Verse
|----------------|--------------------|--------------------|
|----------------|--------------------|--------------------|
|----7---6-------|--------------------|--------------------|
|----7---7---x4--|--9999999999999999--|--6666666666666666--|
|----9---9-------|--7777777777777777--|--4444444444444444--|
|----------------|--------------------|--------------------|
                  ..................palm mute..............

|--------------------|--------------------|-------------------|
|--------------------|--------------------|-------------------|
|--------------------|--------------------|--9~~-6~~----------|
|--------------------|--------------------|--9~~-6~~-9~~-7~~--|
|--9999999999999999--|--7777777777777777--|--7~~-4~~-9~~-7~~--|
|--7777777777777777--|--5555555555555555--|----------7~~-5~~--|
...............palm mute.................

|--------------------|--------------------|--------------------|
|--------------------|--------------------|--------------------|
|--------------------|--------------------|--------------------|
|--9999999999999999--|--6666666666666666--|--------------------|
|--7777777777777777--|--4444444444444444--|--9999999999999999--|
|--------------------|--------------------|--7777777777777777--|
...........................palm mute...........................

|--------------------|-----------------|------------------xxx--|
|--------------------|-----------------|------------------xxx--|
|--------------------|---6~--------4~--|--6~---------4~---xxx--|
|--------------------|---6~--------4~--|--6~---------4~---xxx--|
|--7777777777777777--|---4~-4h7-6--2~--|--4~-4h6h7-4-2~---xxx--|
|--5555555555555555--|-----------------|------------------xxx--|
 ....................


Chorus
|------------------------------|
|------------------------------|
|---7~~--6~~-------------------|
|---7~~--6~~--9~~--6~~-7~~--x2-|
|---9~~--4~~--9~~--6~~-7~~-----|
|-------------7~~--4~~-5~~-----|


Verse 2
|--------------------|--------------------|--------------------|
|--------------------|--------------------|--------------------|
|--------------------|--------------------|--------------------|
|--9999999999999999--|--6666666666666666--|--------------------|
|--7777777777777777--|--4444444444444444--|--9999999999999999--|
|--------------------|--------------------|--7777777777777777--|
 .......................palm mute..............................

|--------------------|-------------------|-----------------|
|--------------------|-------------------|-----------------|
|--------------------|--9~~-6~~----------|--6~--------4~---|
|--------------------|--9~~-6~~-9~~-7~~--|--6~--------4~---|
|--7777777777777777--|--7~~-4~~-9~~-7~~--|--4~-4h7-6--2~---|
|--5555555555555555--|----------7~~-5~~--|-----------------|
 ....................

|-----------------xxx--|
|-----------------xxx--|
|--6~---------4~--xxx--|
|--6~---------4---xxx--|
|--4~-4h6h7-4-2~--xxx--|
|-----------------xxx--|


Bridge
|-----------------|-----------|---------------|-----------|-----------|
|-----------------|-----------|---------------|-----------|-----------|
|-----------------|-----------|---------------|-----------|-----------|
|--8-666-666-668--|--888-886--|--666-666-668--|--888-886--|--666-668--|
|--6-444-444-446--|--666-664--|--444-444-446--|--666-664--|--444-446--|
|-----------------|-----------|---------------|-----------|-----------|

|-------------|
|-------------|
|-------------|
|--888-88-6~--|
|--666-66-4~--|
|-------------|


End Chorus                     end on
|-----------------------------|------|
|-----------------------------|------|
|--9~~--6~~-------------------|--9~--|
|--9~~--6~~--9~~--6~~-7~~--x4-|--9~--|
|--7~~--4~~--9~~--6~~-7~~-----|--7~--|
|------------7~~--4~~-5~~-----|------|


order:

intro
verse
chorus
verse 2
chorus
bridge
end chorus

Tap to rate this tab
# A B C D E F G H I J K L M N O P Q R S T U V W X Y Z