Song name
# A B C D E F G H I J K L M N O P Q R S T U V W X Y Z

Rob Chappers - Bleed The Light tab

Tuning (this tab): Drop C# Tab difficulty: intermediate

	This is in Drop Db so all Eb and the E string is dropped down a step ;)

Except for the Power chords and the 'Stinger', Rob likes to use Hybrid picking to do the 
intro. Basically, only use the pick for the E string, use your middle and ring finger 
to pick the A and D.

In this part, roll off the volume to clean up the guitar, in the next part you will then 
bring in the volume and it sounds great.

Also, after each power chord, slap the strings with your palm ;)


Eb|-------------------------------------------------------------------------|
Bb|-------------------------------------------------------------------------|
Gb|------7----5-------------------------------------------------------------|
Db|------7----5---------------------0------------------3x--------3--2p--0p--|
Ab|------5----3-------------0---2h--------------0--3h------0p---------------|
Db|------0----3------0---3h--------------3/5--------------------------------|

After the last pull-off, roll in the volume gradually and then play this:

(bend the 13 fret B string to the same pitch as the 10th fret on the E string) And 
again, hybrid pick the D string (the one that's usually a D string haha)

Eb|------------------------------------------------10---|
Bb|------------------------------------------------13b--|
Gb|------7----5-----------------------------------------|
Db|------7----5--------------0--------------------------|
Ab|------5----3-----------------------------------------|
Db|------0----3------0----2b----2b-r--0-----------------|

You then repeat the two parts again but with the volume full for both ;)

Then here's the first part of the solo:

Eb|-----------------------------------------------------|
Bb|---------------10v----12b-r---10p--------------------|
Gb|-----------12----------------------12---11-----------|
Db|-------12--------------------------------------------|
Ab|---10------------------------------------------------|
Db|-----------------------------------------------------|

With this part, hybrid pick the Eb string notes:

Eb|-----------------------------10-----------------12-------------------|
Bb|---------------10v----12b---------12b-r---10p--------10---12b-r---10-|
Gb|-----------12--------------------------------------------------------|
Db|-------12------------------------------------------------------------|
Ab|---10----------------------------------------------------------------|
Db|---------------------------------------------------------------------|

b = Bend
r = Bring back to normal note
b-r = Pick the note, bend it, and then pull it back to normal
v = Vibrato
h = Hammer-on
p = Pull-off
x = Dead note (3x means Mute the 3rd fret of the g string)
/ = Slide

That's all I know really ;) Thanks for looking and send me a message for any questions 
or problems ;)

http://www.monkeylord.co.uk/
Tap to rate this tab
# A B C D E F G H I J K L M N O P Q R S T U V W X Y Z