Song name
# A B C D E F G H I J K L M N O P Q R S T U V W X Y Z

Rob Dougan - Clubbed To Death tab

Artist: Rob Dougan
Song: Clubbed to Death (Kurayamino variation)
Tabbed by: Pierre-Yves Schuetz
Email: pierreyves{dot}schuetz{at}gmail{dot}com



E-|-----------------|-----------------|-----------------|-----------------|
B-|-----------------|-----------------|-----------------|-----------------|
G-|-----0---3---2-0-|-----0---3---2-0-|-----0---3---2-0-|-----0---3---2-0-|
D-|---0---0---------|---0---0---------|---0---0---------|---0---0---------|
A-|-----------------|-0---------------|-1---------------|-3---------------|
E-|-3---------------|-----------------|-----------------|-----------------|

E-|-3---------------|---------1-------|-----------------|-----------------|
B-|-----------------|-----------4-3-1-|-34313-----------|---------1-------|
G-|-----------------|-----------------|-----------------|-----------3-2-0-|
D-|-----------------|-----------------|-----------------|-----------------|
A-|-----------------|-0---------------|-1---------------|-3---------------|
E-|-3---------------|-----------------|-----------------|-----------------|

E-|-----------------|-----------------|-----------------|-----------------|
B-|-----------------|-----------------|-----------------|-----------------|
G-|-2302------------|------------0----|-----------------|-----------------|
D-|-0---------------|-1-----------310-|-----------------|-----------------|
A-|-----------------|-----------------|-2---------------|-3----------310--|
E-|-----------------|-----------------|-----------------|---------------3-|


E-|-----------------|-----------------|
B-|-----------------|-----------------|
G-|-----------------|-0---------------|
D-|-----------------|-----------------|
A-|-----------------|-----------------|
E-|-----------------|-----------------|


E-|-----------------|-----------------|-----------------|-----------------|
B-|-----------------|-1---------------|---------3-------|-------------1---|
G-|-----0---3---0---|---------2-------|-----0-------3---|-3-------2-------|
D-|---0---0---0---0-|---0-4-------4---|---0---0---0---0-|-----1-----1---1-|
A-|-----------------|-------5---5---5-|-1---------------|-3-3---3---------|
E-|-3---------------|-----------------|-----------------|-----------------|


E-|-----------------|-3-----------3---|-3-----------1---|-1-----1---------|
A-|-------------3---|---------4-------|-----0---3-0---0-|-----1---4---1-4-|
D-|-----0---3-0---3-|---0-3-0---3---3-|---0---0---------|---0-----0-0-----|
G-|-0-0---0---------|-1---------------|-----------------|-----------------|
B-|-----------------|-----------------|-2---------------|-3---------------|
E-|-----------------|-----------------|-----------------|-----------------|


E-|-----------------|-----------------|-----------------|---3---6--10--15-|
A-|-3---------------|-----------------|---------------3-|-----3---8--11---|
D-|-----0---3---0---|-3-----3-2-------|-0-----0---3-0---|-3---------------|
G-|---0---0---0---0-|-----1---0---0-4-|-----0---0-------|-----------------|
B-|-----------------|-3-3-------3-----|---1-------------|-----------------|
E-|-3---------------|-----------------|-3---------------|-----------------|


Tap to rate this tab
# A B C D E F G H I J K L M N O P Q R S T U V W X Y Z