Song name
# A B C D E F G H I J K L M N O P Q R S T U V W X Y Z

Rob Dyrdek - Ridiculousness tab

Ridiculousness Theme Song
-------------------------------------------------------------------------|
-------------------------------------------------------------------------|
-------------------------------------------------------------------------|
--5-5--7----5-5--5----5-5--5------5-5-5-2--5-5-5-2--5-5-5-2--5-5-5-2-----|
--5-5--7----5-5--5----5-5--5------5-5-5-2--5-5-5-2--5-5-5-2--5-5-5-2-----|
--3-3--5----3-3--7----3-3--7------7-7-3-0--7-7-3-0--7-7-3-0--7-7-3-0-----|

-----------------------------------------------------------|
-----------------------------------------------------------|
-----------------------------------------------------------|
-(5)(5)(5)(5)(5)(5)(5)(5)(5)(5)(5)(5)(5)(5)(5)(5)(5)(5)(5)-|
-(5)(5)(5)(5)(5)(5)(5)(5)(5)(5)(5)(5)(5)(5)(5)(5)(5)(5)(5)-|
-(3)(3)(3)(3)(3)(3)(3)(3)(3)(3)(3)(3)(3)(3)(3)(3)(3)(3)(3)-|
                         yeahyeahyeahyeahyeahyeahyeahyeahyeah

------------------------------------------------------------|
------------------------------------------------------------|
------------------------------------------------------------|
-5-5-5-2--5-5-5-2-------------------------------------------|
-5-5-5-2--5-5-5-2-------------------------------------------|
-7-7-3-0--7-7-3-0-------------------------------------------|
                let ring

()= palm mute
Tap to rate this tab
# A B C D E F G H I J K L M N O P Q R S T U V W X Y Z