Song name
# A B C D E F G H I J K L M N O P Q R S T U V W X Y Z

Rob Scallon - Iowan Bird tab

                                Iowan Bird                                 
                              by Rob Scallon



E||--------------------------------------|
B||-----------0-----------------0--------|
G||--0-----------0-----0-----------0-----|
D||-----4-----------4-----4-----------4--|
A||--------5--5--------------5--5--------|
E||--5-----------------5-----------------|

  
--------------------------------------|
-----------0-----------------0--------|
--0-----------0-----0-----------0-----|
-----4-----------4-----4-----------4--|
--------5--5--------------5--5--------|
--5-----------------5-----------------|

  
--------------------------------------|
-----------0-----------------0--------|
--0-----------0-----0-----------0-----|
-----4-----------4-----4-----------4--|
--------5--5--------------5--5--------|
--3-----------------3-----------------|

    
--------------------------------------||
-----------0-----------------0--------||
--0-----------0-----0-----------0-----||
-----4-----------4-----4-----------4--||
--------5--5--------------5--5--------||
--3-----------------3-----------------||




rinse. lather. repeat.
Tap to rate this tab
 
# A B C D E F G H I J K L M N O P Q R S T U V W X Y Z