Song name
# A B C D E F G H I J K L M N O P Q R S T U V W X Y Z

Rob Scallon - Ottawa tab

Ottawa                                      
by Rob Scallon



Very simple song and really good for beginners to fingerpicking. The song is in a 
strange tuning though.

Here's how to tune the guitar
-Low E string goes up a half step to F
-D string goes down a step to C
-and B string goes up a half step to C


 

Verse:

E||---0-----------0-----------|--0-----------0-----------|
C||------0-----------0--------|-----0-----------0--------|
G||*--------0-----------0-----|--------0-----------0-----|
C||*-----------0-----------0--|-----------0-----------0--|
A||---0-----------------------|--------------------------|
F||---------------------------|--------------------------|


--0-----------0-----------|--0-----------0------------||
-----0-----------0--------|-----0-----------0---------||
--------0-----------0-----|--------0-----------0-----*||
-----------0-----------0--|-----------0-----------0--*||
--------------------------|---------------------------||
--0-----------------------|---------------------------||


 


Chorus:

---0-----------0-----------|--0-----------0-----------|
------4-----------4--------|-----4-----------5--------|
*--------5-----------5-----|--------5-----------7-----|
*-----------0-----------0--|-----------0-----------0--|
---------------------------|--------------------------|
---2-----------------------|--2-----------4-----------|


   
--0-----------0-----------|--0-----------0------------||
-----7-----------7--------|-----7-----------7---------||
--------9-----------9-----|--------9-----------9-----*||
-----------0-----------0--|-----------0-----------0--*||
--------------------------|---------------------------||
--0-----------------------|---------------------------||




Ending:

|--0-----------0-----------|
|-----7-----------7--------|
|--------9-----------9-----|
|-----------0-----------0--|
|--------------0-----------|
|--0-----------------------|


              
--0-----------0-----------|--0-----------0-----------|--0----------------|
-----7-----------7--------|-----7-----------7--------|--7----------------|
--------9-----------9-----|--------9-----------9-----|--9----------------|
-----------0-----------0--|-----------0-----------0--|--0----------------|
--------------------------|--------------0-----------|--0----------------|
--7-----------------------|--0-----------------------|--7----------------|


              
|--0----------------|
|--0----------------|
|--0----------------|
|--0----------------|
|--0----------------|
|--0----------------|




enjoy!
Tap to rate this tab
 
# A B C D E F G H I J K L M N O P Q R S T U V W X Y Z