Song name
# A B C D E F G H I J K L M N O P Q R S T U V W X Y Z

Rob Thomas - Fallin To Pieces tab

-------------------------------------------------------------------------------
                          FALLIN' TO PIECES - Rob Thomas
-------------------------------------------------------------------------------
Tabbed by: Barry Miles

Main Riff:
  (slight p.m.)
  |---------|
e|------------------------|
B|---------------2~~------|
G|------------0-----------|
D|-------0h2--------------|     x4 Then
A|-0--0-------------------|
E|------------------------|

Verse:
Riff     Riff   Riff      Riff
Pray you don't, Lose your place
D       D7     Riff Riff
Dead of night, Underway

All your days, Pass you by
Sun will rise, On your lonely, lonely nights

Chorus:
E        D        Riff   Riff
Pray you sleep tonight
E                       D
Pray just a little, When every little thing starts fallin' to pieces

Riff x2

Verse:
Take my hand, Fall in place
Soul inside, Oh It shows in every line, That's on your face

Chorus:
Stay with me tonight, 
Stay I'm gonna need ya when every little thing starts fallin' to pieces

Riff x2

Bridge:
       D
Ya you been around town
Took it down now, turn around
Why is it the ones you love
                    A
That make it all so hard on you
    D
Oh, Then you let it fall behind
And in the back of your mind
You feel my loving shine
                       E          D
You think you might be saved, aw yeah

A
Tell me that you want someone beside you
Tell me that you want to see this through
D
Tell me all the times that I've been loving you
       A
Oh you love me love me love me love me too

Chorus:
Stay with me tonight
Stay I'm gonna need ya when every little thing starts fallin' to pieces

Riff x2

Chorus:
Pray just a little when every little thing starts fallin' to pieces

Outro Riff (slight P.M.)
e|------------------------------|
B|------------------------------|
G|------------------------------|
D|------0h2----0----------------|
A|-0--0-----0-----3b--0---------|
E|------------------------0-3b--|

Back ground guitar goes:
A   D   A   A


| /  slide up
| \  slide down
| h  hammer-on
| p  pull-off
| ~  vibrato
| +  harmonic
| x  Mute note
===============================================================================

Tap to rate this tab
# A B C D E F G H I J K L M N O P Q R S T U V W X Y Z