Guitaretab - guitar tabs
Song name
# A B C D E F G H I J K L M N O P Q R S T U V W X Y Z

Rob Thomas - Unwell chords

E---------5-7-5---------5-7-5-5-----5-5-5-5------|
B----5-7--5-7-5--7-5-7--5-7-5-5-----5-5-5-5------|
G----4-6---------6-4-6---------------------------|
D-0------------------------------0---------------|
A------------------------------------------------|
E------------------------------------------------|
[ Tab from: http://www.guitaretab.com/r/rob-thomas/192726.html ]
E----0-2-5-2-----2-----0---------0-------0-------|
B----0-2-5-2-----2----0-0------0-------0---------|
G------------2------1-----1-2-------3------------|
D--4-----------4----2-----2-4-------6------------|
A------------------------------------------------|
E------------------------------------------------|

took ages but i'm pretty sure thats rightt, 
if you have questions jezz_jav@hotmail.com
thanks :)
Related for Unwell chords
Advertisement will be closed in 10 seconds