Song name
# A B C D E F G H I J K L M N O P Q R S T U V W X Y Z

Rob Thomas - Cradlesong tab

This is the title track off the genius Rob Thomas' 2nd album 
it's really easy to play this is basically it for the 
whole song. Except when he sings "this world can be so 
cruel and i will sing for you this cradlesong"
which he strums chords but i'm not sure what chords they are.


Intro:
e|--0-0---0-0---0-0---0-0---------------|
B|--------------------------3-3---3-3---|
G|-2-2---2-2---2-2---2-2---2-2---2-2----|
D|--------------------------------------|
A|--------------------------------------|
E|--------------------------------------|


All Verses
e|--0-0---0-0---0-0---0-0---0-0---0-0--------------|
B|--------------------------------------3-3---3-3--|
G|-2-2---2-2---2-2---2-2---2-2---2-2---2-2---2-2---|
D|-------------------------------------------------|
A|-------------------------------------------------|
E|-------------------------------------------------|
Tap to rate this tab
 
# A B C D E F G H I J K L M N O P Q R S T U V W X Y Z