Song name
# A B C D E F G H I J K L M N O P Q R S T U V W X Y Z

Rob Thomas - Fallin To Pieces tab

These are the easy parts, enjoy!

Riff:

|-------------------|
|-------------------|
|-------------6h7-6-|
|--------h5-5-------|
|7---5h7------------|
|5-5----------------|

Outro:

|-------------------|
|-------------------|
|-------------------|
|-------------------|
|7---7---5----------|
|5-5---5---8-5-0h3--|
Tap to rate this tab
# A B C D E F G H I J K L M N O P Q R S T U V W X Y Z