Song name
# A B C D E F G H I J K L M N O P Q R S T U V W X Y Z

Rob Thomas - Cradlesong tab

Title: Cradlesong
Artist: Rob Thomas
Tab: Guitar solo
Tabbed by: Daniel Gray

        I've looked everywhere for this solo with no luck. So I just tabbed
it out myself and figured I'd share it. I think it sounds pretty good. If
you have any questions or comments, feel free to email me at d_gray48@yahoo.com. 
Hope you enjoy :)

e|---------------------------------------|
B|---------------------------------------|
G|---------------------------------------|
D|--------------2/9~~----7--9--9/11~~----|
A|---------------------------------------|
E|---------------------------------------|


e|---------------------------------------------------|
B|---------------------------------------------------|
G|---------------------------------------------------|
D|--11--11--11\9--9--9\7--7--7\6--6--6\4--4--4\2/7~~-|
A|---------------------------------------------------|
E|---------------------------------------------------|


e|---------------------------------------------|
B|---------------------------------------------|
G|-------------------------------7--9--9/11~~--|
D|-------------------------------7--9--9/11~~--|
A|--0--2/7--9---9--9--7--9~---9--5--7--7/9 ~~--|
E|---------------------------------------------|
                                {-----------}
                                { I'm not entirely sure
                                        about this part.}


e|------------------------------------------------------|
B|------------------------------------------------------|
G|------------------------------------------------------|
D|--11/12\11--7\2~---9/11\9--6\2~~----------------------|
A|-----------------------------------------2/4\2--0~~---|
E|------------------------------------------------------|

Legend:
       /-slide up
       \-slide down
       ~-let ring
Tap to rate this tab
# A B C D E F G H I J K L M N O P Q R S T U V W X Y Z