Song name
# A B C D E F G H I J K L M N O P Q R S T U V W X Y Z

Rob Thomas - Hard On You chords

Highlighted       Show chord diagrams
Tabbed by Greg22
Standard Tuning
"Hard On You" is off the album "Cradlesong" by Rob Thomas.  
It is played in the key of F.  I've done it here in D with a capo 3 so that
it will match the key of F on the album.

Capo 3
(All tab relative to capo)

Intro:
e|--2--5--0--2----2--5--0--2----|
B|--3--5--2--3----3--5--2--3----|
G|--4--6--2--2----4--6--2--2----|
D|--4--7--2--0----4--7--2-------|
A|--2--7--0-------2--7--0-------|
E|-----5-------------5----------|

Bm                    A     D
You're the best thing I ever knew
Bm                     A      D
You do everything that I cant do
Bm              A       D
Sometimes I get lost in my blue
Bm                      A       D
Please forgive me if im hard on you
Bm                      A       D
Please forgive me if im hard on you

(Same as Intro):
e|--2--5--0--2----2--5--0--2----|
B|--3--5--2--3----3--5--2--3----|
G|--4--6--2--2----4--6--2--2----|
D|--4--7--2--0----4--7--2-------|
A|--2--7--0-------2--7--0-------|
E|-----5-------------5----------|

Bm              A         D
You and me got so much to prove
Bm                         A      D
You're the only thing that I cant lose
Bm                      A           D
The nights are peaceful here in our room
Bm                      A       D
Please forgive me if im hard on you
Bm                      A       D
Please forgive me if im hard on you

G           Bm                     D            F#m              G
Cuz I didnt mean to be mean when I said all the things I said to you
              Bm                      A
But maybe the worst is the best I can do
Asus A
With you
G           Bm                   D
And I never want you to go but I know
          F#m            G
I've been moving way too slow
            Bm                      A    Asus A
And I fall apart cuz its all that I know

Solo:

e|--2--5--0--2----2--5--0--2----|
B|--3--5--2--3----3--5--2--3----|
G|--4--6--2--2----4--6--2--2----|
D|--4--7--2--0----4--7--2-------|
A|--2--7--0-------2--7--0-------|
E|-----5-------------5----------|


e|--2--5--0--2----0----0--------|
B|--3--5--2--3----2--4----------|
G|--4--6--2--2----2-------------|
D|--4--7--2--0----2-------------|
A|--2--7--0-------0-------------|
E|-----5------------------------|


Bm                A       D
Where you running now baby blue
Bm                         A        D
Please dont let it take me far from you
Bm                 A          D
I've been restless ive been a fool
Bm                      A       D
Please forgive me if im hard on you
Bm                      A       D
Please forgive me if im hard on you
Bm                      A       D
Please forgive me if im hard on you
Bm                      A       D
Please forgive me if im hard on you

source: http://www.lyricsondemand.com/r/robthomaslyrics/hardonyoulyrics.html
Tap to rate this tab
# A B C D E F G H I J K L M N O P Q R S T U V W X Y Z