Song name
# A B C D E F G H I J K L M N O P Q R S T U V W X Y Z

Rob Thomas - Now Comes The Night tab

This is my first tab. I heard this for the first time in a long time the other day and thought
I would try and tab it.

ARTIST: Rob Thomas
SONG: Now Comes The Night
ALBUM: Something To Be

This is basically the intro but can probably be used for the whole song with a bit of tweaking.
I've tried to put the lyrics in the correct position to help with the timing.

Enjoy.

Any questions.. chris.bowman1@hotmail.co.uk


  G                  C                  G                  G                  Em

e|------------------|0-----------------|------------------|------------------|------------------|
B|--------------0-3-|--3---3-------0---|0-----------------|------------------|------------0--0--|
G|------------0-----|------------------|----2-0-----------|----0--------0----|---------0--------|
D|------------------|------------------|------------------|------------------|-----2------------|
A|------------------|3--------3--------|------------------|------------------|------------------|
E|3--------3--------|------------------|3--------3--------|3--------2--------|0--------0--------|

              And... hour.... is....  upON us                                         ...And..



 C                  G                  G                  G                  C

|------------------|------------------|------------------|------------------|0-----------------|
|0-----------------|------------------|------------------|--------------0-3-|--3---3----0------|
|---2---2----0-----|0-----------------|0-----------------|------------0-----|------------------|
|------------------|------------------|------------------|------------------|------------------|
|3--------3--------|------------------|------------------|------------------|3--------3--------|
|------------------|3--------3--------|3--------3--------|3--------3--------|------------------|

.beauty   surely    gone                                              No.. ..will not 
BE..   for..



 G                  G                  Em                 C                  G

|-----0------------|------------------|------------------|------------------|------------------|
|3------0----------|------------------|------------0--0--|0-----------------|------------------|
|------------------|-----0--------0---|-------- 0--------|---2---2----0-----|0-----------------|
|------------------|------------------|----2-------------|------------------|------------------|
|------------------|------------------|------------------|3--------3--------|------------------|
|3--------3--------|3--------2--------|0--------0--------|------------------|3--------3--------|

.GOTten..                                         and you Will.. ..be... ..a-Fraid..



 G                  Em                 C                  G                  G

|------------------|------------------|------------------|------------------|------------------|
|------------------|------------0--0--|0-----------------|------------------|------------------|
|-----0--------0---|-------- 0--------|---2---2----0-----|0-----------------|0-----------------|
|------------------|----2-------------|------------------|------------------|------------------|
|------------------|------------------|3--------3--------|------------------|------------------|
|3--------2--------|0--------0--------|------------------|3--------3--------|3--------3--------|

                               and you Will..  ..be.....a-Fraid
Tap to rate this tab
 
# A B C D E F G H I J K L M N O P Q R S T U V W X Y Z