Song name
# A B C D E F G H I J K L M N O P Q R S T U V W X Y Z

Rob Zombie - Lords Of Salem tab

Uhhh Hi. This is my first tab, and it is the first tab I've seen for ths song. I
appreciate any type of criticism. Its pretty easy. I know i'm missing a small fill after the
bridge, or solo rather. Here it is.

EDIT: Okay, I think its Drop C, but either one is fine. 


e-------------------------------------------|
B-------------------------------------------|
G-------------------------------------------|
D----0-0--12b----0-0--12b-12b-10------------|
A----0-0--12b----0-0--12b-12b-10--|   Intro--| X4
D-\--0-0--12b----0-0--12b-12b-10------------|

* Very small bend, its not a big bend at all.

                                      Verse

e----------------------------------------------------------|
B----------------------------------------------------------|
G----------------------------------------------------------|      X2
D----0-0-----0--0-0--------0-0------0--0-0-----------------|
A----0-0-----0--0-0--------0-0------0--0-0-----------------|
D----0-0-----0--0-0--------0-0------0--0-0---<13>|---------|


                  PM                   PM
e---------------------------------------------------------------|
B---------------------------------------------------------------|
G---------------------------------------------------------------|      X2
D----0-0--1---0--0-0--1-1------0-0--1----0--0-0-----------------|
A----0-0--1---0--0-0--1-1------0-0--1----0--0-0-----------------|
D----0-0--1---0--0-0--1-1------0-0--1----0--0-0---<13>|---------|

           Chorus
e------------------------------------|
B------------------------------------|
G------------------------------------|
D----0-0--12b----0-0--12b-12b-0------|
A----0-0--12b----0-0--12b-12b-0------|
D-\--0-0--12b----0-0--12b-12b-0------|

Verse 2

e----------------------------------------------------------|
B----------------------------------------------------------|
G----------------------------------------------------------|      X2
D----0-0-----0--0-0--------0-0------0--0-0-----------------|
A----0-0-----0--0-0--------0-0------0--0-0-----------------|
D----0-0-----0--0-0--------0-0------0--0-0---<13>|---------|


                  PM                   PM
e---------------------------------------------------------------|
B---------------------------------------------------------------|
G---------------------------------------------------------------|      X2
D----0-0--1---0--0-0--1-1------0-0--1----0--0-0-----------------|
A----0-0--1---0--0-0--1-1------0-0--1----0--0-0-----------------|
D----0-0--1---0--0-0--1-1------0-0--1----0--0-0---<13>|---------|

Chorus 2

e------------------------------------|
B------------------------------------|
G------------------------------------|
D----0-0--12b----0-0--12b-12b-0------|
A----0-0--12b----0-0--12b-12b-0------|
D-\--0-0--12b----0-0--12b-12b-0------|


Bridge/Solo

e---------------------------------------------------------------------|
B---------------------------------------------------------------------|
G-2--4--5-7-------4--5--7--9-------8---7-5-3-------8---7-5-3----------|   X2
D---------------------------------------------------------------------|
A---------------------------------------------------------------------|
D---------------------------------------------------------------------|

Chorus 3

e------------------------------------|
B------------------------------------|
G------------------------------------|
D----0-0--12b----0-0--12b-12b-0------|
A----0-0--12b----0-0--12b-12b-0------|
D-\--0-0--12b----0-0--12b-12b-0------|

Outro

e--------------------------------------------------------------------|
B--------------------------------------------------------------------|
G--------------------------------------------------------------------|
D--------------------------------------------------------------------|
A--000-1---0001------------------------------------------------------|
D--000-1---0001------------------------------------------------------|


Well there it is. Its pretty easy. PM me if you have any questions or anything.

EDIT: Okay, I think its Drop C, but either one is fine. 
Tap to rate this tab
 
# A B C D E F G H I J K L M N O P Q R S T U V W X Y Z