Song name
# A B C D E F G H I J K L M N O P Q R S T U V W X Y Z

Rob Zombie - Reload tab

riff 1

|--------------------------------|
|--------------------------------|
|--------------------------------|
|--------------------------------|
|--------------------------------|
|-----4----6----4----6--8---4---6|   x4

riff 2


|--------------------------------|
|--------------------------------|
|--------------------------------|
|-----4----6----4----6----4---6--|
|-----4----6----4----6----4---6--|
|-----4----6----4----6----4---6--|   x4




riff 3

|--------------------------------|
|--------------------------------|
|--------------------------------|
|----6----6-----6----6----6----6-|
|----6----6-----6----6----6----6-|
|----6----6-----6----6----6----6-|
Tap to rate this tab
# A B C D E F G H I J K L M N O P Q R S T U V W X Y Z