Song name
# A B C D E F G H I J K L M N O P Q R S T U V W X Y Z

Rob Zombie - Let The Bodies Hit The Floor tab

Wierd song but meh

Drop C

You can figure out the timings.. ill just put the notes in


0:08                   Play this Behind the fucked up guitar
|--------------------|------------------------------------------------|
|--------------------|------------------------------------------------|
|-7------------------|------------------------------------------------|
|-7---6----0---6-----|-0-0-1-0-0-1-3-----------------------------------|
|-5---6----0---6-----|-0-0-1-0-0-1-3-----------------------------------|
|-----6----0---6-----|-0-0-1-0-0-1-3-----------------------------------|


Also play that in the verses but palm muted

Verse -            Then play this lick fast 
|----------------|--------------|
|----------------|--------------|
|----------------|--------------|
|-0-0-1-0-0-3-5--|--------------|
|-0-0-1-0-0-3-5--|--------------|
|-0-0-1-0-0-3-5--|-1234321234---|

Pre Chorus    on the last time go  
|------------|-----------|
|------------|-----------|
|------------|-----------|
|-0-0-0------|-0-0-0-7---|
|-0-0-0------|-0-0-0-5---|
|-0-0-0------|-0-0-0-----|

Chorus -
|-----------------|
|-----------------|
|-7---------------|
|-7-6-0-6---------|
|-5-6-0-6---------|
|---6-0-6---------|

Repeat verse

Repeat pre chorus

Repeat Chorus

I think the next bit is something like
|-----------------|
|-----------------|
|-----------------|
|---------0-0-2---|
|---------0-0-2---|
|-3456543-0-0-2---|  something like that

Repeat verse

Repeat Pre chorus

Repeat chorus

Finish on 0
          0 
          0

Tap to rate this tab
# A B C D E F G H I J K L M N O P Q R S T U V W X Y Z