Song name
# A B C D E F G H I J K L M N O P Q R S T U V W X Y Z

Rob Zombie - The Devils Rejects tab

-------------------------------------------------------------------------------
			     THE DEVIL'S REJECTS - Rob Zombie
-------------------------------------------------------------------------------
Tabbed by: ironmanben
Email: bentrooper@gmail.com

Tuning: 

guitar 1:
c G E B F B

guitars 2 and 3:
c G E B F C

NOTE: Many parts of this tab are pedal-steel or synth arranged for guitar.

intro:
(guitar 2:)
e|-4-9-9-99\7-4-7-77-77\6-4-/9-9-99\7-4-/7-|
B|-x-x-x-xx-x-x-x-xx-xx-x-x--x-x-xx-x-x--x-|
G|-2-7-7-77\5-2-5-55-55\4-2-/7-7-77\5-2-/5-|
D|-----------------------------------------|
A|-----------------------------------------|
E|-----------------------------------------|

intro part 2:
(guitar 2:)
e|-1111/131111/13-|
B|-x-x--x--x-x-x--|
G|-9-9-/11-9-9/11-|
D|----------------|
A|----------------|
E|----------------|

intro part 3:
guitar 1:
e|---------------------------------|
B|---------------------------------|
G|---------------------------------|
D|-0-----------(0)---------6---5-3-|
A|-0-----------(0)---------6---5-3-|
E|-0-----------(0)---------6---5-3-|
-|guitar 2:                        |
e|/10-/16-/17----/10-/17-\16-------|
B|-x---x---x------x---x---x--------|
G|/7--/13-/14----/7--/14-\13-------|
D|---------------------------------|
A|---------------------------------|
E|---------------------------------|
-|guitar 3:                        |
e|-0-00-00-00-00-00-00-00-00-00-00-00-00-00-00-00-0-|
B|-0-00-00-00-00-00-00-00-00-00-00-00-00-00-00-00-0-|
G|-0-00-00-00-00-00-00-00-00-00-00-00-00-00-00-00-0-|
D|-2-22-22-22-22-22-22-22-22-22-22-22-22-22-22-22-2-|
A|-2-22-22-22-22-22-22-22-22-22-22-22-22-22-22-22-2-|
E|-0-00-00-00-00-00-00-00-00-00-00-00-00-00-00-00-0-|

verse:
(guitar 2:)
e|----------------------------------------------------|
B|----------------------------------------------------|
G|-7-77-77-7-8-7--77-77-7-8-7--77-77-7-8-7-13-13-12-10|
D|-x-xx-xx-x-x-x--xx-xx-x-x-x--xx-xx-x-x-x-x--x--x--x-|
A|-5-55-55-5-6-5--55-55-5-6-5--55-55-5-6-5-11-11-10-8-|
E|----------------------------------------------------|


chorus:
guitar 1:
c|---------------------|
G|---------------------|
E|---------------------|
B|-0-2-0-3-0-6-5-0-2-3-|
F|-0-2-0-3-0-6-5-0-2-3-|
B|-0-2-0-3-0-6-5-0-2-3-|
-|guitar 2:            |
e|-----10/13-13\10-----|
B|-----x--x--x--x------|
G|-----7-/10-10\7------|
B|---------------------|
A|---------------------|
B|---------------------|

post-chorus:
guitar 2:
e|-0-------------------|
B|-0-------------------|
G|-0-------------------|
D|-2-------------------|
A|-2-------------------|
E|-0-------------------|
-|guitar 1:            |
e|---------------------|
B|---------------------|
G|---------------------|
D|---------------------|
A|-----5---3-8---6---5-|
E|---0---0-------------|


| /  slide up
| \  slide down
| h  hammer-on
| p  pull-off
| ~  vibrato
| +  harmonic
| x  Mute note
===============================================================================
Tap to rate this tab
# A B C D E F G H I J K L M N O P Q R S T U V W X Y Z