Song name
# A B C D E F G H I J K L M N O P Q R S T U V W X Y Z

Rob Zombie - Virgin Witch tab

    I welcome questions/comments you can reach me at
 tomophilia99@yahoo.com I'll answer any questions..... about the tab


First drop the low E string to a B
You can do this by harmonizing the 10th fret of the E string to match the open A string, Then
you're ready to play!!

Intro.
turn your neck volume to 0 and Bridge all the way up.  Then flick the toggle 
selector back and forth while playing this
e----------------------------------------------------------------------------------------|
B----------------------------------------------------------------------------------------|
G----------------------------------------------------------------------------------------|
D---4------------------------------------------------------------------------------------|
A---2---------------(9--8)*-------(3---2)*-----------------------------------------------|
B----------------------------------------------------------------------------------------|
*bass and rhythm guitar track, but it sounds cool if you play this with the killswitch too

Synth.
----------------------14--|
--------13----------------|
---16---------16----------|
--------------------------|
--------------------------|
--------------------------|

Cool riff at 0:40.
--------------------------------------------------------------------------------|
--------------------------------------------------------------------------------|
--------------------------------------------------(X2)--------------------------|
--------------------------------------------------------------------------------|
---------0h2---0h2--------------------------------------------0h2-0h2-----------|
--0-0-----------------0-5-0-5-6-5-3------------------0--0--------------0-3-0-3--|

-----------------------------------------------------------------------------------------|
-----------------------------------------------------------------------------------------|
-----------------------------------------------------------------------------------------|
-----------------------------------------------------------------------------------------|
---------0h2---0h2-----------------------------------------------------------------------|
--0-0-----------------0-5-0-5-6-5-3-------5-5--5-5-3-------------------------------------|

Verse Riff.
----------------------------------------------------------------------------------------|
----------------------------------------------------------------------------------------|
----------------------------------------------------------------------------------------|
----------------------------------------------------------------------------------------|
------------------------------------0--3-0h2-----------------------------0--0-0h2-------|
--0-------0-0-0-0-0-0-0-0---------------------0-0-0-0-0-0-0-0---------------------------|
                       P.M^^^^^^^^^^^^^                           P.M^^^^^^^^^^^^^

Chorus
--------------------------------------------------------------------------|
--------------------------------------------------------------------------|
--------------------------------------------------------------------------|
------------------------------------------------(x3)----------------------|
--------------------------------------8-7-5-------------------------------|
-10h12---0-0--10h12--0--0-------------------10h12-0-0--10h12-0--0---/13~--|
                     P.M.                      P.M.
P.M.                    P.M.
Solo(not perfect, be nice)
----------------------------------------------------------------------------------------|
---------12------------------11---------------------------------------------------------|
---/11-------11--10~----10-------10-9~--------------------------------------------------|
----------------------------------------------------------------------------------------|
----------------------------------------------------------------------------------------|
----------------------------------------------------------------------------------------|


-------------------------------------------------------------|
--------------------------------------------------------12~--|
-------------------------------------------------------------|
---12b---9--------9--12--7-8-9--/12--9-----------------------|
---------------12-------------------------------12-----------|
-------------------------------------------------------------|


----------------------------------------------------------------------------------------|
----------------------------------------------------------------------------------------|
---11h12p11--10-9-10---10h11p10--9-8-9--------------------------------------------------|
----------------------------------------------------------------------------------------|
----------------------------------------------------------------------------------------|
----------------------------------------------------------------------------------------|


----------------------------------------------------------------------------------------|
----------------------------------------------------------------------------------------|
----------------------------------------------------------------------------------------|
----9h10p9--8-9-8---8h9p8--7-6-7-6------------------------------------------------------|
----------------------------------------------------------------------------------------|
----------------------------------------------------------------------------------------|


-----------------------------------7h8p7h8----------/14--13~----------------------------|
-------------------5h6p5h6--------------------------------------------------------------|
----4h5p4h5-----------------------------------------------------------------------------|
----------------------------------------------------------------------------------------|
----------------------------------------------------------------------------------------|
----------------------------------------------------------------------------------------|


----------------------------------------------------------------------------------------|
-------12-13-14-15-14-12-15-14-12-----18-17-15-18-17-15---------------------------------|
----------------------------------------------------------------------------------------|
----------------------------------------------------------------------------------------|
----------------------------------------------------------------------------------------|
----------------------------------------------------------------------------------------|


------18----17------15~-----------------------------------------------------------------|
----------------------------------12h14h15p14p12----------------------------------------|
-----------------------------------------------------15p14p12---------------------------|
----------------------------------------------------------------------------------------|
----------------------------------------------------------------------------------------|
----------------------------------------------------------------------------------------|


----------------------------------------------------------------------------------------|
--15p14p12------------------------------------------------------------------------------|
-----------------15p14p12---------------------------------------------------------------|
---------------------------------15----14------12---------------------------------------|
----------------------------------------------------------------------------------------|
----------------------------------------------------------------------------------------|


----------------------------------------------------------------------------------------|
-------7p0----7p0------7p0-------7p0-----6p0-----6p0-----6p0----------------------------|
-----------------------------------------------------------------------7----------------|
--/9--------9-------9---------9--------9------9--------9----------9---------9~----------|
----------------------------------------------------------------------------------------|
----------------------------------------------------------------------------------------|
PM^^^^^^^^^^^^^^^^^^^^^^^^^^^^^^^^^^^^^^^^^^^^^^^^^^^^^^^^^^^^^^^^^^^^^^^^

----------------------------------------------15h17-------------------------------------|
-------------------10h12--12--12--///---------------------------------------------------|
----------------------------------------------------------------------------------------|
--7h9---9--9----------------------------------------------------------------------------|
----------------------------------------------------------------------------------------|
----------------------------------------------------------------------------------------|


----------------------------------------------------------------------------------------|
-------12-13-14-15-14-12-15-14-12-----18-17-15-18-17-15---------------------------------|
----------------------------------------------------------------------------------------|
----------------------------------------------------------------------------------------|
----------------------------------------------------------------------------------------|
----------------------------------------------------------------------------------------|


------18----17------15~-----------------------------------------------------------------|
----------------------------------12h14h15p14p12----------------------------------------|
------------------------------------------------------------15p14p12--------------------|
----------------------------------------------------------------------------------------|
----------------------------------------------------------------------------------------|
----------------------------------------------------------------------------------------|


----------------------------------------------------------------------------------------|
--15p14p12------------------------------------------------------------------------------|
-----------------15p14p12---------------------------------------------------------------|
---------------------------------15----14------12---------------------------------------|
----------------------------------------------------------------------------------------|
----------------------------------------------------------------------------------------|


These are pinch Harmonics.  Make them squeal by bending behind The nut......or you can 
a whammy bar(yawn)
Pitch---               B              F              B
---------------------------0-------------------------------------------------------------|
--------------------0--------------------------------------------------------------------|
-------------0---------------------------------------------------------------------------|
-----------------------------------------------------------------------------------------|
-----------------------------------------------------------------------------------------|
-----------------------------------------------------------------------------------------|

----------------------------------------------15h17-------------------------------------|
-------------------10h12--12--12--/-----------------------------------------------------|
----------------------------------------------------------------------------------------|
--7h9---9--9----------------------------------------------------------------------------|
----------------------------------------------------------------------------------------|
----------------------------------------------------------------------------------------|
Tap to rate this tab
# A B C D E F G H I J K L M N O P Q R S T U V W X Y Z