Song name
# A B C D E F G H I J K L M N O P Q R S T U V W X Y Z

Rob Zombie - Werewolf Women Of The Ss tab

I welcome questions and comments at tomophilia99@yahoo.com or message me at UG

don't forget to rate if you like it.  Thanks!!!

Finally The Truth About Hitler's Diabolical Plan to Create a Race of Super Women can be Told!!!


----------------------------------------------------------------------------------------|
----------------------------------------------------------------------------------------|
----------------------------------------------------------------------------------------|
----------------------------------------------------------------------------------------|
--10--10--10\\\\\\\\--------------------------------------------------------------------|
----------------------------------------------------------------------------------------|

Main Riff
---------------------------------------------------------------------------------------|
---------------------------------------------------------------------------------------|
---------------------------------------------------------------------------------------|
-----------------12-11~--11-11-11--12-11-10--------------------------------------------|
--10-10-13------------------------------------------13-8h10~-10-10\\\\\\\\\------------|
---------------------------------------------------------------------------------------|

Verse
----------------------------------------------------------------------------------|
----------------------------------------------------------------------------------|
----------------------------------------------------------------------------------|
--------------------------------8--8--8--7--7--6--6-------------------------------|
--5--5--5-------5--5--5---------8--8--8--7--7--6--6-------------------------------|
--3--3--3--4----3--3--3--4--3-----------------------------------------------------|
P.M.^^^^^^^^^^^^^^^^^^^^^^^^^^^^^^^^^^^^^^^^^^^^^^^^^^^^^^^^^^^^^^^

----------------------------------------------------------------------------------------|
----------------------------------------------------------------------------------------|
----------------------------------------------------------------------------------------|
---------------------------------8---8---8--7--7----3-----------------------------------|
--5--5--5-------5--5--5----------8---8---8--7--7----3-----------------------------------|
--3--3--3--4----3--3--3--4--3-----------------------------------------------------------|
P.M.^^^^^^^^^^^^^^^^^^^^^^^^^^^^^^^^^^^^^^^^^^^^^^^^^^^^^^^^^^^^^^^

----------------------------------------------------------------------------------------|
----------------------------------------------------------------------------------------|
-------------------------------8---8---8---7--7--6--6-----------------------------------|
--5--5--5------5--5--5---------8---8---8---7--7--6--6-----------------------------------|
--3--3--3--4---3--3--3--4--3------------------------------------------------------------|
----------------------------------------------------------------------------------------|
P.M.^^^^^^^^^^^^^^^^^^^^^^^^^^^^^^^^^^^^^^^^^^^^^^^^^^^^^^^^^^^^^^^

--------------------------------------------------------------------------------------|
--------------------------------------------------------------------------------------|
-------------------------------8---8---8---7--7----3----------------------------------|
--5--5--5------5--5--5---------8---8---8---7--7----3----------------------------------|
--3--3--3--4---3--3--3--4--3----------------------------------------------------------|
--------------------------------------------------------------------------------------|
P.M.^^^^^^^^^^^^^^^^^^^^^^^^^^^^^^^^^^^^^^^^^^^^^^^^^^^^^^^^^^^^^^^

Chorus- Werewolf women of The S......S
--------------------------------------------------------------------------------------|
--------------------------------------------------------------------------------------|
--7--7--7--7--7--6---5--------5-------------------------------------------------------|
--7--7--7--7--7--6---5--------5-------------------------------------------------------|
--5--5--5--5--5--4---3--------3-------------------------------------------------------|
--------------------------------------------------------------------------------------|

Howl Baby Howl!!
-----------------------------------------------------------------------------------|
-----------------------------------------------------------------------------------|
-----------------------------------------------------------------------------------|
--------------------------------8---8---8--7--7--6--6------------------------------|
--5--5--5--------5--5--5--------8---8---8--7--7--6--6------------------------------|
--3--3--3--4----3--3--3--4--3------------------------------------------------------|
P.M.^^^^^^^^^^^^^^^^^^^^^^^^^^^^^^^^^^^^^^^^^^^^^^^^^^^^^^^^^^^^^^^

--------------------------------------------------------------------------------------|
--------------------------------------------------------------------------------------|
--------------------------------------------------------------------------------------|
--------------------------------------------------------------------------------------|
--5--5--5-------5--5--5---------------------------------------------------------------|
--3--3--3--4----3--3--3--4--3---1--3--1--3--1--3~-------------------------------------|
P.M.^^^^^^^^^^^^^^^^^^^^^^^^^^^^^^^^^^^^^^^^^^^^^^^^^^^^^^^^^^^^^^^


SOLO  TIME!!!!!
-----------------------------------------------------------------------------15-14-14-15-15-----|
-----------------------------------------------------------------------------15-14-14-15-15-----|
--------------------------------------------------12-13-12-10-12-10-----------------------------|
---------9------9--10--12--10--9------------------------------------------------------------\---|
-10--11-----10----------------------10-------------------------------------------------------\--|
------------------------------------------------------------------------------------------------|
^^^^^^^^^^^^^^^^^^^^^^^^^^^^^^^^^^^^^^^^^^^^^^^^^^^^^^^^^^^^^^^^^^^
Trem. Pick


-----------------------------------------------------------------------|
------------12-------12-13-15-13-12------------------------------------|
-12---13--------12------------------------12-12-13-12-10-12-10-8-10-8--|
-----------------------------------------------------------------------|
-----------------------------------------------------------------------|
-----------------------------------------------------------------------|
^^^^^^^^^^^^^^^^^^^^^^^^^^^^^^^^^^^^^^^^^^^^^^^^^^^^^^^^^^^^^^^^^^^^^^^
Trem. Pick

---------------------------------------------------------------------------------------|
-----------------------------------------11-10~-------------14--16-15------------------|
--7-8-7-5-7-5-3-5-3-2-0--------------12------------12--15------------------------------|
------------------------------/10-13---------------------------------------------------|
---------------------------------------------------------------------------------------|
---------------------------------------------------------------------------------------|
^^^^^^^^^^^^^^^^^^^^^
Trem. Pick


------------15--18--17~--18-17--14-15--------------------------------|
--13--16-----------------18-17--14-15------------------------15-14b--|
----------------------------------------------------15-12-15---------|
---------------------------------------------------------------------|
---------------------------------------------------------------------|
---------------------------------------------------------------------|

--------------------------------------------------------------14T15--------------------|
-------------------------------------------------14T15---------------------------------|
--12-12-15-15-12-12-13-13-11~----12T13--14T15------------------------------------------|
---------------------------------------------------------------------------------------|
---------------------------------------------------------------------------------------|
---------------------------------------------------------------------------------------|
T is for trill

--15-16-17-16-15-14-16-15-14-13-15-14-13-12-11-13-12-11-10-12-11-10------------|
-------------------------------------------------------------------------------|
-------------------------------------------------------------------------------|
-------------------------------------------------------------------------------|
-------------------------------------------------------------------------------|
-------------------------------------------------------------------------------|
Tap to rate this tab
# A B C D E F G H I J K L M N O P Q R S T U V W X Y Z