Song name
# A B C D E F G H I J K L M N O P Q R S T U V W X Y Z

Rob Zombie - American Witch tab

--------------------------------------------------------------------------------------------------
                          American Witch by Rob Zombie
--------------------------------------------------------------------------------------------------

Tabbed by th_brck_rcks
Tuning: Drop B (B-F#-B-E-G#-C#)

Riff 1
|-------------------------------|-------------------------------|
|-------------------------------|-------------------------------|
|-------------------------------|-------------------------------|
|-------------------------------|-------------------------------|
|------------6-5---------6-5-9--|------------6-5---------6-5-3--|
|0-0-000-000-----0-0-000--------|0-0-000-000-----0-0-000--------|
|+ + +++ +++     + + +++       ^|+ + +++ +++     + + +++        |

Riff 2
|10-10-10-10-10-10-10-10-10-10-13---|10-10-10-10-10-10-10-10-10-10-8----|
|13-13-13-13-13-13-13-13-13-13-16---|13-13-13-13-13-13-13-13-13-13-11---|
|-----------------------------------|-----------------------------------|
|-----------------------------------|-----------------------------------|
|-----------------------------------|-----------------------------------|
|-----------------------------------|-----------------------------------|
|^  ^  ^  ^  ^  ^  ^  ^  ^  ^  ^    |^  ^  ^  ^  ^  ^  ^  ^  ^  ^  ^    |

Riff 3
|--------------------------------|--------------------------------|
|--------------------------------|--------------------------------|
|--------------------------------|--------------------------------|
|----------------------------4-5-|--------------------------------|
|----12/-----12/-----------------|----12/-----12/-------------3-5-|
|0-0-12/-0-0-12/-0-0-12/-0-0-----|0-0-12/-0-0-12/-0-0-12/-0-0-----|
|+ +     + +     + +     + +     |+ +     + +     + +     + +     |

Riff 4
|------------------------------------|----------------------------------|
|------------------------------------|----------------------------------|
|------------------------------------|----------------------------------|
|------------------------------------|----------------------------------|
|------------------------------------|----------------------------------|
|0-3-5-0-5-7-0-7-10-0-10-12-10-12-15~|0-3-5-0-5-7-0-7-10-0-10-12-0-12-10|
|                                    |                                  |

Riff 5
|-----10--------10-----8---|
|--------------------------|
|7-8-------7-8-----8-7-----|
|--------------------------|
|--------------------------|
|--------------------------|

Riff 6
|18-18-17-17-18-18-17-17-18-18-17-17-18-18-21~~|
|----------------------------------------------|
|----------------------------------------------|
|----------------------------------------------|
|----------------------------------------------|
|----------------------------------------------|

Fill 1
|----------------------10--|
|----------------------13--|
|--------------------------|
|--------------------------|
|--------------------------|
|--------------------------|
|                      ^   |

Order:
Riff 1 X1
Riff 1 & 2 X1
Riff 1 & Fill 1(every two measures) X2
Riff 3 X2
Riff 1 X1
Riff 1 & Fill 1(every two measures) X2
Riff 1 X2
Riff 3 X2
Riff 4 X1
Riff 4 X2 & Riff 2(first measure only) X4
Riff 5 X1
Riff 5 X1 & Riff 6 X2
Riff 1 X2
Riff 3 X2
Riff 3 X2 & Riff 2(first measure only) X4

Legend:
Palm Mute-+
Bend-^
Vibrato-~
Slide Down-/

Thanx for reading my tab, i hope u enjoy playing the song.
Tap to rate this tab
# A B C D E F G H I J K L M N O P Q R S T U V W X Y Z