Song name
# A B C D E F G H I J K L M N O P Q R S T U V W X Y Z

Rob Zombie - Virgin Witch tab

Virgin Witch Tunning Just To Make Sure U've Got It
C#
G#
E
B
F#
B
...Bt Im not gonna put the # symbols

Virgin Witch
A Riff
C-------------------------------|
G-------------------------------|
E-------------------------------|
B-------------------------------|
F-------------------------------|
B-0--0--0--76--10--76--10--76--1|these are not 10's...

B Riff PT.1
C-------------------------------------------|
G-------------------------------------------|
E-------------------------------------------|
B-------------------------------------------|
F----3h5-3h5-0304/(6)\(5)P3----3h5-3h5-0303-|
B--00--------0305/(6)\(5)P3--00--------0303-|
B Riff PT.2
C-------------------------------------------|
G-------------------------------------------|
E-------------------------------------------|
B-------------------------------------------|
F---3h5-3h5----------------55-5-05/(6)\(5)3-|
B-00--------0305/(6)\(5)P3-55-5-05/(6)\(5)3-|
No Pause Inbetween those 2 Just Cuz its pt.1 and pt.2

Riff C PT.1 (verse)
C-----------------------------|
G-----------------------------|
E-----------------------------|
B-----------------------------|
F-------363/(5)------333/(5)--|
B-000000-------000000---------|
  ......       ......
Riff C PT.2
C----------------------|
G----------------------|
E----------------------|
B----------------------|
F-------363/(5)--------|
B-000000-------0000005b|
  ......       ......
Riff D
C---------------------------------------------------|
G---------------------------------------------------|
E---------------------------------------------------|
B---------------------------------------------------|
F-3h5--3h5---------3h5--3h5--------3h5--3h5---------|
B----00---00-6-5-3----00---00-6-5-3---00---00-6-5-3-|
     ..   ..          ..   ..         ..   ..
Riff D PT.2
C---------------------|
G---------------------|
E---------------------|
B---------------------|
F-3h5----3h5----/6666-|
B----0--0---0--0------|
     .  .   .  .

Okey thats it bt to help out since i dont know the solo...
Durring the solo u play...
Riff B
Riff D 2x

note
/( )-slide up to fret in ( )
\( )-slide down 2 Fret in ( )
.-under a number is palm mute
h-hammer on
P-Pull off
b-Bend
Tap to rate this tab
 
# A B C D E F G H I J K L M N O P Q R S T U V W X Y Z