Song name
# A B C D E F G H I J K L M N O P Q R S T U V W X Y Z

Rob Zombie - Sick Bubblegum tab

Sick Bubble Gum which i belive is a half step down/d tunning... or c tunning
intro i belive and some computer sampled guitar or w/e
D----|
A----|
F----|
D----|
G-0h2|
D----|
Riff A
d---------------------------------------------|
a---------------------------------------------|
f---------------------------------------------|
d---------6--------6--------6--------6---3333-|
a-5555555845555555845555555845555555845551111-|
d-33333336-33333336-33333336-33333336-333-----|
  .......  .......  .......  .......  ...

Rock The MF riff
D----------------------------------|
A----------------------------------|
F----------------------------------|
D-----------------------------3333-|
A-55555555555555555555555555551111-|
D-3333333333333333333333333333-----|
  ............................

Riff B (how i play it, just so i can get those high notes)
D---15---15---15-----|
A---18b--18b--18b----|bend this to match the note ^below^ (15th fret)
F-00---00---00-------|
D-00---00---00---3333|
A----------------1111|
D--------------------|

Riff C (intro piece to solo)
D------------------------|
A------------------------|
F-666555---565---6665555b|idk if its a bend or not...
D-------8-5---85---------|
A------------------------|
D------------------------|

Note:
b-bend
.-under # means plam mute
h-hammer on
I dont have solo sorrie
Tap to rate this tab
 
# A B C D E F G H I J K L M N O P Q R S T U V W X Y Z