Rob Zombie - Werewolf Women Of The Ss tab

-------------------------------------------------------------------------------
			     WEREWOLF WOMEN OF THE SS - Rob Zombie
-------------------------------------------------------------------------------
Tabbed by: ironmanben
Email: bentrooper@gmail.com

Tuning: d A F C G D

guitar 1 - John 5 - lead
guitar 2 - John 5 - rhythm
guitar 3 - John 5 - rhythm 2

intro:
(guitar 2:)
d|-------------------|
A|-------------------|
F|-------------------|
C|-------------------|
G|-12\\\\\\\\\\\\\\\-|
D|-------------------|

main riff:
(guitar 1:)
d|-------------------------------------------------------------------------|
A|-------------------------------------------------------------------------|
F|-14-14-17-21-20-20-20-20-20-20-21-21-20-19-17-12-14-14-14-14-14-14-14-14-|
C|-x--x--x--x--x--x--x--x--x--x--x--x--x--x--x--x--x--x--x--x--x--x--x--x--|
G|-12-12-15-19-18-18-18-18-18-18-19-19-18-17-15-10-12-12-12-12-12-12-12-12-|
D|-------------------------------------------------------------------------|

d|---------------------|
A|---------------------|
F|-14-14\\\\\\\\\\\\\\-|
C|-x-------------------|
G|-12------------------|
D|---------------------|


main riff:
(guitars 2 & 3:)
d|---------------------------------|---------------------------------|
A|---------------------------------|---------------------------------|
F|---------------------------------|---------------------------------|
C|---------------------------------|---------------------------------|
G|-0-0-0-1-0-0-0-1-0-3-3-3-2-2-1-1-|-0-0-0-1-0-0-0-1-0-3-3-3-2-2-----|
D|---------------------------------|-----------------------------3-3-|


verse:
(guitars 2 & 3:)
d|---------------------------------|---------------------------------|
A|---------------------------------|---------------------------------|
F|---------------------------------|---------------------------------|
C|---------------------------------|---------------------------------|
G|-0-0-0-1-0-0-0-1-0-3-3-3-2-2-1-1-|-0-0-0-1-0-0-0-1-0-3-3-3-2-2-----|
D|---------------------------------|-----------------------------3-3-|

d|---------------------------------|---------------------------------|
A|---------------------------------|---------------------------------|
F|---------------------------------|---------------------------------|
C|---------------------------------|---------------------------------|
G|-0-0-0-1-0-0-0-1-0-3-3-3-2-2-1-1-|-0-0-0-1-0-0-0-1-0-3-3-3-2-2-----|
D|---------------------------------|-----------------------------3-3-|

d|---------------------------------|---------------------------------|
A|---------------------------------|---------------------------------|
F|---------------------------------|---------------------------------|
C|-0-0-0-1-0-0-0-1-0-3-3-3-2-2-1-1-|-0-0-0-1-0-0-0-1-0-3-3-3-2-2-----|
G|---------------------------------|-----------------------------3^--|
D|---------------------------------|---------------------------------|

d|---------------------------------|---------------------------------|
A|---------------------------------|---------------------------------|
F|---------------------------------|---------------------------------|
C|---------------------------------|---------------------------------|
G|-0-0-0-1-0-0-0-1-0-3-3-3-2-2-1-1-|-0-0-0-1-0-0-0-1-0-3-3-3-2-2-----|
D|---------------------------------|-----------------------------3-3-|


chorus:
(guitar 2:)
d|-----------------------------------------------------------------|
A|-----------------------------------------------------------------|
F|-9-9-9-9-9-9-9-9-9-9-9-9-9-9-8-8-7-7-7-7-7-7-7-7-7---------------|
C|-9-9-9-9-9-9-9-9-9-9-9-9-9-9-8-8-7-7-7-7-7-7-7-7-7---------------|
G|-7-7-7-7-7-7-7-7-7-7-7-7-7-7-6-6-5-5-5-5-5-5-5-5-5---------------|
D|-----------------------------------------------------------------|
-| (guitar 3:)                                                     |
d|-----------------------------------------------------------------|
A|-----------------------------------------------------------------|
F|-----------------------------------------------------------------|
C|-----------------------------------------------------------------|
G|-2-----------------------(2)-------------------------------------|
D|-0-----------------------(0)-------------------------------------|


post-chorus:
(guitars 2 & 3:)
d|---------------------------------|-----------------------------------|
A|---------------------------------|-----------------------------------|
F|---------------------------------|-----------------------------------|
C|---------------------------------|-----------------------------------|
G|-0-0-0-1-0-0-0-1-0-3-3-3-2-2-1-1-|-0-0-0-1-0-0-0-1-0-----------------|
D|---------------------------------|-------------------0-3^-0-3^-0-3-4-|


guitar solo:
(guitar 1:)
d|-------------------------------------------------------------------------|
A|-------------------------------------------------------------------------|
F|-------------------------------------------------------------------------|
C|-------------------------------------------------11-11-11-11-12-12-12-12-|
G|-12-12-12-12-12-12-13-13-16-16-16-16-12-12-12-12-------------------------|
D|-------------------------------------------------------------------------|
   ^fast picking

d|-------------------------------------------------------------------------|
A|-------------------------------------------------------------------------|
F|-------------------------14-14-15-15-------------12-12-14-14-------------|
C|-14-14-12-12-11-11-------------------------------------------------------|
G|-------------------12-12-------------12-12-12-12-------------12-12-12-12-|
D|-------------------------------------------------------------------------|

d|-17----17----16----16----17----17----17\\\\-----------------------------|
A|-17----17----16----16----17----17---------------------------------------|
F|---------------------------------------------14-14-14-14-14-14-15-15-18-|
C|------------------------------------------------------------------------|
G|------------------------------------------------------------------------|
D|------------------------------------------------------------------------|

d|----------------------------------------------------------------------|
A|----------------------------------------------------------------------|
F|-18-18-18-14-14-14-14-18-18-18-18-19-19-19-19-21-21-19-19-18-18-14-14-|
C|----------------------------------------------------------------------|
G|----------------------------------------------------------------------|
D|----------------------------------------------------------------------|

d|------------------------------------------------------------------------|
A|------------------------------------------------------------------10\---|
F|-14-15-14-12-14-14-12-10-12-12-10-9-10-10-9-7-9-7-6-6-7-6---------------|
C|----------------------------------------------------------7-7-----------|
G|------------------------------------------------------------------------|
D|------------------------------------------------------------------------|
                                                            ^picking slows
 
d|------------------------------------------------------------17-20-19-19-|
A|--------10-13-12---12----------15-18-1717171717-17-------18-------------|
F|-----10---------------------14-----------------------/19----------------|
C|-/12--------------------/15---------------------------------------------|
G|------------------------------------------------------------------------|
D|------------------------------------------------------------------------|

d|-19-19-20202020-19-19-16-16-17-------------------------------------------|
A|-------18181818-18-18-18-18-18-18----------17-16/17\16-------------------|
F|----------------------------------17----17-------------------17-17-------|
C|-------------------------------------19----------------19-19-------19-19-|
G|-------------------------------------------------------------------------|
D|-------------------------------------------------------------------------|

d|------------------------------------------------17h18p17h18-|
A|------------------------14h15p14h15-17h18p17h18-------------|
F|-15-15------14h15p14h15-------------------------------------|
C|-------18---------------------------------------------------|
G|------------------------------------------------------------|
D|------------------------------------------------------------|

d|-//\\//\\//\\//\\-|
A|------------------|
F|------------------|
C|------------------|
G|------------------|
D|------------------|
   ^while you do this, pick the notes at the same speed as John 5 does at the 
beginning of the solo.


post chorus 2:
(guitars 2 & 3:)
d|---------------------------------|---------------------------------|
A|---------------------------------|---------------------------------|
F|---------------------------------|---------------------------------|
C|---------------------------------|---------------------------------|
G|-0-0-0-1-0-0-0-1-0-3-3-3-2-2-1-1-|-0-0-0-1-0-0-0-1-0-3-3-3-2-2-1-1-|
D|---------------------------------|---------------------------------|

d|---------------------------------|-----------------------------------|
A|---------------------------------|-----------------------------------|
F|---------------------------------|-----------------------------------|
C|---------------------------------|-----------------------------------|
G|-0-0-0-1-0-0-0-1-0-3-3-3-2-2-1-1-|-0-0-0-1-0-0-0-1-0-----------------|
D|---------------------------------|-------------------0-3^-0-3^-0-3-4-|


Order:
intro (guitar 2 only)
main riff x2 (all guitars)
verse (guitars 2 & 3 only)
chorus (guitars 2 & 3 only)
post-chorus (guitars 2 & 3 only)
main riff x2 (all guitars)
verse (guitars 2 & 3 only)
chorus (guitars 2 & 3 only)
post-chorus (guitars 2 & 3 only)
guitar solo (guitar 1 only)
chorus (guitars 2 & 3 only)
intro (guitar 2 only)
post-chorus 2 (guitars 2 & 3 only)
main riff x2 (all guitars)



************************************

| /   slide up
| \   slide down
| h   hammer-on
| p   pull-off
| ~   vibrato
| +   harmonic
| x   Mute note
| b   Bend
| pb  Pre-bend
| br  Bend release
| pbr Pre-bend release
| brb Bend release bend

************************************
Tap to rate this tab
 
# A B C D E F G H I J K L M N O P Q R S T U V W X Y Z