Song name
# A B C D E F G H I J K L M N O P Q R S T U V W X Y Z

Rob Zombie - Superbeast tab

This song sounds more correct on a 7 string than a 6 string to me. If you're using a 6 
string, this may be the wrong tab for you, unless using B-standard tuning.

key-
m = palm mute
r = let ring (no mute)


Play 2 times
|--------------------------------------------------------------------------------|
|--------------------------------------------------------------------------------|
|--------------------------------------------------------------------------------|
|--------------------------------------------------------------------------------|
|--11-11-11-11-11-11-11-11/10-10-10-10-10-10/6-6-6-6-6-6-6-6/7-7-7-7/9-9---------|
|--11-11-11-11-11-11-11-11/10-10-10-10-10-10/6-6-6-6-6-6-6-6/7-7-7-7/9-9---------|
|--9--9--9--9--9--9--9--9-/8--8--8--8--8--8-/4-4-4-4-4-4-4-4/5-5-5-5/7-7---------|


    m m m r  m m m m m m r  m m m m m m r  m m m m m m r
|--------------------------------------------------------|
|--------------------------------------------------------|
|---------5--------------2--------------5----------------|
|---------5--------------2--------------5--------------5-|
|---------3--------------0--------------3--------------5-|
|---2-0-2----0-2-0-2-0-2----0-2-0-2-0-2----0-2-0-2-0-2-3-|
    m m m m m m r  m m m m m m r  m m m m m m r  m m m m m m r  m m m
|--------------------------------------------------------------------|
|--------------------------------------------------------------------|
|---------------5--------------2--------------5----------------------|
|---------------5--------------2--------------5--------------5-------|
|---------------3--------------0--------------3--------------5-------|
|---0-2-0-2-0-2----0-2-0-2-0-2----0-2-0-2-0-2----0-2-0-2-0-2-3--0-2-0|


Play 7 times
   m  m m  m m  m  m m  m r
|---------------------------------------------------------------------|
|---------------------------------------------------------------------|
|---------------------------------------------------------------------|
|--4--4-4--4-4--4--4-4--4-4-------------------------------------------|
|--4--4-4--4-4--4--4-4--4-4-------------------------------------------|
|--2--2-2--2-2--2--2-2--2-2-------------------------------------------|


    m m m r  m m m m m m r  m m m m m m r  m m m m m m r
|--------------------------------------------------------|
|--------------------------------------------------------|
|---------5--------------2--------------5----------------|
|---------5--------------2--------------5--------------5-|
|---------3--------------0--------------3--------------5-|
|---2-0-2----0-2-0-2-0-2----0-2-0-2-0-2----0-2-0-2-0-2-3-|
    m m m m m m r  m m m m m m r  m m m m m m r  m m m m m m r  m m m
|--------------------------------------------------------------------|
|--------------------------------------------------------------------|
|---------------5--------------2--------------5----------------------|
|---------------5--------------2--------------5--------------5-------|
|---------------3--------------0--------------3--------------5-------|
|---0-2-0-2-0-2----0-2-0-2-0-2----0-2-0-2-0-2----0-2-0-2-0-2-3--0-2-0|


Play 2 times
|--------------------------------------------------------------------------------|
|--------------------------------------------------------------------------------|
|--------------------------------------------------------------------------------|
|--------------------------------------------------------------------------------|
|--11-11-11-11-11-11-11-11/10-10-10-10-10-10/6-6-6-6-6-6-6-6/7-7-7-7/9-9---------|
|--11-11-11-11-11-11-11-11/10-10-10-10-10-10/6-6-6-6-6-6-6-6/7-7-7-7/9-9---------|
|--9--9--9--9--9--9--9--9-/8--8--8--8--8--8-/4-4-4-4-4-4-4-4/5-5-5-5/7-7---------|


Play 7 times
   m  m m  m m  m  m m  m r
|---------------------------------------------------------------------|
|---------------------------------------------------------------------|
|---------------------------------------------------------------------|
|--4--4-4--4-4--4--4-4--4-4-------------------------------------------|
|--4--4-4--4-4--4--4-4--4-4-------------------------------------------|
|--2--2-2--2-2--2--2-2--2-2-------------------------------------------|


    m m m r  m m m m m m r  m m m m m m r  m m m m m m r
|--------------------------------------------------------|
|--------------------------------------------------------|
|---------5--------------2--------------5----------------|
|---------5--------------2--------------5--------------5-|
|---------3--------------0--------------3--------------5-|
|---2-0-2----0-2-0-2-0-2----0-2-0-2-0-2----0-2-0-2-0-2-3-|
    m m m m m m r  m m m m m m r  m m m m m m r  m m m m m m r  m m m
|--------------------------------------------------------------------|
|--------------------------------------------------------------------|
|---------------5--------------2--------------5----------------------|
|---------------5--------------2--------------5--------------5-------|
|---------------3--------------0--------------3--------------5-------|
|---0-2-0-2-0-2----0-2-0-2-0-2----0-2-0-2-0-2----0-2-0-2-0-2-3--0-2-0|


|--------------------------------------------------------------------|
|--------------------------------------------------------------------|
|--------------------------------------------------------------------|
|--------------------------------------------------------------------|
|--------------------------------------------------------------------|
|---2-2-2-5-5-5-8-8-8-7-7-7-7-7-7-0-0-2-2-2-5-5-5-8-8-8-7-7-7-10-12--|


Play 2 times
|--------------------------------------------------------------------------------|
|--------------------------------------------------------------------------------|
|--------------------------------------------------------------------------------|
|--------------------------------------------------------------------------------|
|--11-11-11-11-11-11-11-11/10-10-10-10-10-10/6-6-6-6-6-6-6-6/7-7-7-7/9-9---------|
|--11-11-11-11-11-11-11-11/10-10-10-10-10-10/6-6-6-6-6-6-6-6/7-7-7-7/9-9---------|
|--9--9--9--9--9--9--9--9-/8--8--8--8--8--8-/4-4-4-4-4-4-4-4/5-5-5-5/7-7---------|


Play 4 times
   m  m m  m m  m  m m  m r
|---------------------------------------------------------------------|
|---------------------------------------------------------------------|
|---------------------------------------------------------------------|
|--4--4-4--4-4--4--4-4--4-4-------------------------------------------|
|--4--4-4--4-4--4--4-4--4-4-------------------------------------------|
|--2--2-2--2-2--2--2-2--2-2-------------------------------------------|


play 3 times
    m m m r  m m m m m m r  m m m m m m r  m m m m m m r
|--------------------------------------------------------|
|--------------------------------------------------------|
|---------5--------------2--------------5----------------|
|---------5--------------2--------------5--------------5-|
|---------3--------------0--------------3--------------5-|
|---2-0-2----0-2-0-2-0-2----0-2-0-2-0-2----0-2-0-2-0-2-3-|
    m m m m m m r  m m m m m m r  m m m m m m r  m m m m m m r  m m m
|--------------------------------------------------------------------|
|--------------------------------------------------------------------|
|---------------5--------------2--------------5----------------------|
|---------------5--------------2--------------5--------------5-------|
|---------------3--------------0--------------3--------------5-------|
|---0-2-0-2-0-2----0-2-0-2-0-2----0-2-0-2-0-2----0-2-0-2-0-2-3--0-2-0|
Tap to rate this tab
# A B C D E F G H I J K L M N O P Q R S T U V W X Y Z